  0
SECTION
  2
HEADER
  9
$ACADVER
  1
AC1014
  9
$ACADMAINTVER
 70
     9
  9
$DWGCODEPAGE
  3
ANSI_932
  9
$INSBASE
 10
0.0
 20
0.0
 30
0.0
  9
$EXTMIN
 10
-242.8586004985804
 20
-671.3746073885135
 30
-0.0000000000112498
  9
$EXTMAX
 10
384.3174181454746
 20
-287.3229683662075
 30
0.0000000000002956
  9
$LIMMIN
 10
0.0
 20
0.0
  9
$LIMMAX
 10
420.0
 20
297.0
  9
$ORTHOMODE
 70
     0
  9
$REGENMODE
 70
     1
  9
$FILLMODE
 70
     1
  9
$QTEXTMODE
 70
     0
  9
$MIRRTEXT
 70
     0
  9
$DRAGMODE
 70
     2
  9
$LTSCALE
 40
20.0
  9
$OSMODE
 70
    37
  9
$ATTMODE
 70
     1
  9
$TEXTSIZE
 40
2.5
  9
$TRACEWID
 40
1.0
  9
$TEXTSTYLE
  7
STANDARD
  9
$CLAYER
  8
DIMENSION
  9
$CELTYPE
  6
BYLAYER
  9
$CECOLOR
 62
   256
  9
$CELTSCALE
 40
1.0
  9
$DELOBJ
 70
     1
  9
$DISPSILH
 70
     0
  9
$DIMSCALE
 40
2.5
  9
$DIMASZ
 40
2.0
  9
$DIMEXO
 40
0.75
  9
$DIMDLI
 40
5.0
  9
$DIMRND
 40
0.0005
  9
$DIMDLE
 40
0.0
  9
$DIMEXE
 40
1.0
  9
$DIMTP
 40
0.0
  9
$DIMTM
 40
0.000000001
  9
$DIMTXT
 40
3.2
  9
$DIMCEN
 40
0.0
  9
$DIMTSZ
 40
0.0
  9
$DIMTOL
 70
     0
  9
$DIMLIM
 70
     0
  9
$DIMTIH
 70
     0
  9
$DIMTOH
 70
     0
  9
$DIMSE1
 70
     0
  9
$DIMSE2
 70
     0
  9
$DIMTAD
 70
     1
  9
$DIMZIN
 70
     9
  9
$DIMBLK
  1
OPEN30
  9
$DIMASO
 70
     1
  9
$DIMSHO
 70
     1
  9
$DIMPOST
  1

  9
$DIMAPOST
  1

  9
$DIMALT
 70
     0
  9
$DIMALTD
 70
     4
  9
$DIMALTF
 40
0.0394
  9
$DIMLFAC
 40
1.0
  9
$DIMTOFL
 70
     1
  9
$DIMTVP
 40
0.0
  9
$DIMTIX
 70
     0
  9
$DIMSOXD
 70
     0
  9
$DIMSAH
 70
     0
  9
$DIMBLK1
  1

  9
$DIMBLK2
  1

  9
$DIMSTYLE
  2
STANDARD
  9
$DIMCLRD
 70
     4
  9
$DIMCLRE
 70
     4
  9
$DIMCLRT
 70
     2
  9
$DIMTFAC
 40
1.0
  9
$DIMGAP
 40
0.75
  9
$DIMJUST
 70
     0
  9
$DIMSD1
 70
     0
  9
$DIMSD2
 70
     0
  9
$DIMTOLJ
 70
     1
  9
$DIMTZIN
 70
     9
  9
$DIMALTZ
 70
     0
  9
$DIMALTTZ
 70
     0
  9
$DIMFIT
 70
     2
  9
$DIMUPT
 70
     0
  9
$DIMUNIT
 70
     2
  9
$DIMDEC
 70
     2
  9
$DIMTDEC
 70
     2
  9
$DIMALTU
 70
     8
  9
$DIMALTTD
 70
     4
  9
$DIMTXSTY
  7
STANDARD
  9
$DIMAUNIT
 70
     0
  9
$LUNITS
 70
     2
  9
$LUPREC
 70
     4
  9
$SKETCHINC
 40
1.0
  9
$FILLETRAD
 40
15.0
  9
$AUNITS
 70
     0
  9
$AUPREC
 70
     0
  9
$MENU
  1
.
  9
$ELEVATION
 40
0.0
  9
$PELEVATION
 40
0.0
  9
$THICKNESS
 40
0.0
  9
$LIMCHECK
 70
     0
  9
$BLIPMODE
 70
     0
  9
$CHAMFERA
 40
0.5
  9
$CHAMFERB
 40
0.5
  9
$CHAMFERC
 40
20.0
  9
$CHAMFERD
 40
0.0
  9
$SKPOLY
 70
     0
  9
$TDCREATE
 40
2451224.660162384
  9
$TDUPDATE
 40
2455573.643140370
  9
$TDINDWG
 40
15.6849962037
  9
$TDUSRTIMER
 40
15.6849940278
  9
$USRTIMER
 70
     1
  9
$ANGBASE
 50
0.0
  9
$ANGDIR
 70
     0
  9
$PDMODE
 70
     0
  9
$PDSIZE
 40
0.0
  9
$PLINEWID
 40
0.0
  9
$COORDS
 70
     0
  9
$SPLFRAME
 70
     0
  9
$SPLINETYPE
 70
     6
  9
$SPLINESEGS
 70
     8
  9
$ATTDIA
 70
     0
  9
$ATTREQ
 70
     1
  9
$HANDLING
 70
-16383
  9
$HANDSEED
  5
36E66
  9
$SURFTAB1
 70
     6
  9
$SURFTAB2
 70
     6
  9
$SURFTYPE
 70
     6
  9
$SURFU
 70
     6
  9
$SURFV
 70
     6
  9
$UCSNAME
  2

  9
$UCSORG
 10
0.0
 20
0.0
 30
0.0
  9
$UCSXDIR
 10
1.0
 20
0.0
 30
0.0
  9
$UCSYDIR
 10
0.0
 20
1.0
 30
0.0
  9
$PUCSNAME
  2

  9
$PUCSORG
 10
0.0
 20
0.0
 30
0.0
  9
$PUCSXDIR
 10
1.0
 20
0.0
 30
0.0
  9
$PUCSYDIR
 10
0.0
 20
1.0
 30
0.0
  9
$USERI1
 70
     0
  9
$USERI2
 70
     0
  9
$USERI3
 70
     0
  9
$USERI4
 70
     0
  9
$USERI5
 70
     0
  9
$USERR1
 40
0.0
  9
$USERR2
 40
0.0
  9
$USERR3
 40
0.0
  9
$USERR4
 40
0.0
  9
$USERR5
 40
0.0
  9
$WORLDVIEW
 70
     1
  9
$SHADEDGE
 70
     3
  9
$SHADEDIF
 70
    70
  9
$TILEMODE
 70
     0
  9
$MAXACTVP
 70
    48
  9
$PINSBASE
 10
0.0
 20
0.0
 30
0.0
  9
$PLIMCHECK
 70
     0
  9
$PEXTMIN
 10
-0.0077528372842153
 20
-0.0060742783073238
 30
-0.0000000349181948
  9
$PEXTMAX
 10
400.0271213202195
 20
288.0126793765399
 30
0.0000000814935746
  9
$PLIMMIN
 10
-10.78717561017588
 20
-7.374905283320325
  9
$PLIMMAX
 10
415.2925499671558
 20
293.8875165590621
  9
$UNITMODE
 70
     0
  9
$VISRETAIN
 70
     1
  9
$PLINEGEN
 70
     0
  9
$PSLTSCALE
 70
     0
  9
$TREEDEPTH
 70
  3020
  9
$PICKSTYLE
 70
     0
  9
$CMLSTYLE
  2
STANDARD
  9
$CMLJUST
 70
     0
  9
$CMLSCALE
 40
20.0
  9
$PROXYGRAPHICS
 70
     1
  9
$MEASUREMENT
 70
     0
  0
ENDSEC
  0
SECTION
  2
CLASSES
  0
CLASS
  1
HATCH
  2
AcDbHatch
  3
AutoCAD 2000
 90
        0
280
     0
281
     1
  0
CLASS
  1
LWPOLYLINE
  2
AcDbPolyline
  3
AutoCAD 2000
 90
        0
280
     0
281
     1
  0
CLASS
  1
ACDBDICTIONARYWDFLT
  2
AcDbDictionaryWithDefault
  3
AutoCAD 2000
 90
        0
280
     0
281
     0
  0
CLASS
  1
ACDBPLACEHOLDER
  2
AcDbPlaceHolder
  3
AutoCAD 2000
 90
        0
280
     0
281
     0
  0
CLASS
  1
LAYOUT
  2
AcDbLayout
  3
AutoCAD 2000
 90
        0
280
     0
281
     0
  0
CLASS
  1
LONG_TRANSACTION
  2
AcDbLongTransaction
  3
AutoCAD 2000
 90
        0
280
     0
281
     0
  0
CLASS
  1
LWPOLYLINE
  2
AcDbPolyline
  3
AutoCAD 2000
 90
        0
280
     0
281
     1
  0
CLASS
  1
HATCH
  2
AcDbHatch
  3
AutoCAD 2000
 90
        0
280
     0
281
     1
  0
CLASS
  1
XRECORD
  2
AcDbXrecord
  3
AutoCAD 2000
 90
        0
280
     0
281
     0
  0
CLASS
  1
DICTIONARYVAR
  2
AcDbDictionaryVar
  3
AutoCAD 2000
 90
        0
280
     0
281
     0
  0
CLASS
  1
LONG_TRANSACTION
  2
AcDbLongTransaction
  3
AutoCAD 2000
 90
        0
280
     0
281
     0
  0
CLASS
  1
LWPOLYLINE
  2
AcDbPolyline
  3
AutoCAD 2000
 90
        0
280
     0
281
     1
  0
CLASS
  1
HATCH
  2
AcDbHatch
  3
AutoCAD 2000
 90
        0
280
     0
281
     1
  0
CLASS
  1
XRECORD
  2
AcDbXrecord
  3
AutoCAD 2000
 90
        0
280
     0
281
     0
  0
ENDSEC
  0
SECTION
  2
TABLES
  0
TABLE
  2
VPORT
  5
8
330
0
100
AcDbSymbolTable
 70
     2
  0
VPORT
  5
36E1F
330
8
100
AcDbSymbolTableRecord
100
AcDbViewportTableRecord
  2
*ACTIVE
 70
     0
 10
0.0
 20
0.0
 11
1.0
 21
1.0
 12
70.74006657757926
 22
-479.3620392466354
 13
0.0
 23
0.0
 14
10.0
 24
10.0
 15
10.0
 25
10.0
 16
0.0
 26
0.0
 36
1.0
 17
0.0
 27
0.0
 37
0.0
 40
412.5077155112244
 41
1.527918781725888
 42
50.0
 43
0.0
 44
0.0
 50
0.0
 51
0.0
 71
     0
 72
  5000
 73
     1
 74
     0
 75
     0
 76
     0
 77
     0
 78
     0
  0
ENDTAB
  0
TABLE
  2
LTYPE
  5
5
330
0
100
AcDbSymbolTable
 70
     6
  0
LTYPE
  5
12
330
5
100
AcDbSymbolTableRecord
100
AcDbLinetypeTableRecord
  2
BYBLOCK
 70
     0
  3

 72
    65
 73
     0
 40
0.0
  0
LTYPE
  5
13
330
5
100
AcDbSymbolTableRecord
100
AcDbLinetypeTableRecord
  2
BYLAYER
 70
     0
  3

 72
    65
 73
     0
 40
0.0
  0
LTYPE
  5
14
330
5
100
AcDbSymbolTableRecord
100
AcDbLinetypeTableRecord
  2
CONTINUOUS
 70
     0
  3
Solid line
 72
    65
 73
     0
 40
0.0
  0
LTYPE
  5
126C
330
5
100
AcDbSymbolTableRecord
100
AcDbLinetypeTableRecord
  2
CENTER
 70
     0
  3
____ _ ____ _ ____ _ ____ _ ____ _ ____ _ ____
 72
    65
 73
     4
 40
2.0
 49
1.25
 74
     0
 49
-0.25
 74
     0
 49
0.25
 74
     0
 49
-0.25
 74
     0
  0
LTYPE
  5
126E
330
5
100
AcDbSymbolTableRecord
100
AcDbLinetypeTableRecord
  2
DASHDOT
 70
     0
  3
__ . __ . __ . __ . __ . __ . __ . __ . __ . __
 72
    65
 73
     4
 40
1.0
 49
0.5
 74
     0
 49
-0.25
 74
     0
 49
0.0
 74
     0
 49
-0.25
 74
     0
  0
LTYPE
  5
15420
330
5
100
AcDbSymbolTableRecord
100
AcDbLinetypeTableRecord
  2
CENTER2
 70
     0
  3
Center (.5x) ___ _ ___ _ ___ _ ___ _ ___ _ ___
 72
    65
 73
     4
 40
1.125
 49
0.75
 74
     0
 49
-0.125
 74
     0
 49
0.125
 74
     0
 49
-0.125
 74
     0
  0
LTYPE
  5
21602
330
5
100
AcDbSymbolTableRecord
100
AcDbLinetypeTableRecord
  2
HIDDEN2
 70
     0
  3
Hidden (.5x) _ _ _ _ _ _ _ _ _ _ _ _ _ _ _ _ _
 72
    65
 73
     2
 40
0.1875
 49
0.125
 74
     0
 49
-0.0625
 74
     0
  0
ENDTAB
  0
TABLE
  2
LAYER
  5
2
102
{ACAD_XDICTIONARY
360
36601
102
}
330
0
100
AcDbSymbolTable
 70
    15
  0
LAYER
  5
E
330
2
100
AcDbSymbolTableRecord
100
AcDbLayerTableRecord
  2
0
 70
     2
 62
     7
  6
CONTINUOUS
  0
LAYER
  5
2C
330
2
100
AcDbSymbolTableRecord
100
AcDbLayerTableRecord
  2
M_VIEW
 70
     0
 62
    -1
  6
CONTINUOUS
  0
LAYER
  5
30
330
2
100
AcDbSymbolTableRecord
100
AcDbLayerTableRecord
  2
FRAME025
 70
     0
 62
     7
  6
CONTINUOUS
  0
LAYER
  5
12B
330
2
100
AcDbSymbolTableRecord
100
AcDbLayerTableRecord
  2
DEFPOINTS
 70
     0
 62
    -7
  6
CONTINUOUS
  0
LAYER
  5
651
330
2
100
AcDbSymbolTableRecord
100
AcDbLayerTableRecord
  2
FRAME020
 70
     0
 62
     7
  6
CONTINUOUS
  0
LAYER
  5
1271
330
2
100
AcDbSymbolTableRecord
100
AcDbLayerTableRecord
  2
A
 70
     0
 62
     7
  6
CONTINUOUS
  0
LAYER
  5
A9BB
330
2
100
AcDbSymbolTableRecord
100
AcDbLayerTableRecord
  2
文字
 70
     0
 62
     7
  6
CONTINUOUS
  0
LAYER
  5
122DE
330
2
100
AcDbSymbolTableRecord
100
AcDbLayerTableRecord
  2
DIMENSION
 70
     0
 62
     7
  6
CONTINUOUS
  0
LAYER
  5
15422
330
2
100
AcDbSymbolTableRecord
100
AcDbLayerTableRecord
  2
細線
 70
     0
 62
     7
  6
CONTINUOUS
  0
LAYER
  5
15425
330
2
100
AcDbSymbolTableRecord
100
AcDbLayerTableRecord
  2
中心線
 70
     0
 62
     7
  6
CENTER2
  0
LAYER
  5
21603
330
2
100
AcDbSymbolTableRecord
100
AcDbLayerTableRecord
  2
破線
 70
     0
 62
     7
  6
HIDDEN2
  0
ENDTAB
  0
TABLE
  2
STYLE
  5
3
330
0
100
AcDbSymbolTable
 70
     5
  0
STYLE
  5
F
330
3
100
AcDbSymbolTableRecord
100
AcDbTextStyleTableRecord
  2
STANDARD
 70
     0
 40
0.0
 41
1.0
 50
0.0
 71
     0
 42
2.5
  3
isocp.shx
  4
bigfont.shx
  0
STYLE
  5
35
330
3
100
AcDbSymbolTableRecord
100
AcDbTextStyleTableRecord
  2
MSｺ_ｼｯｸ
 70
     0
 40
0.0
 41
1.0
 50
0.0
 71
     0
 42
5.0
  3
MS Gothic.ttf
  4

1001
ACAD
1000
MS Gothic
1071
    32817
  0
STYLE
  5
1275
330
3
100
AcDbSymbolTableRecord
100
AcDbTextStyleTableRecord
  2
BIGFONT
 70
     0
 40
2.0
 41
1.0
 50
0.0
 71
     0
 42
2.0
  3
txt.shx
  4
bigfont.shx
  0
ENDTAB
  0
TABLE
  2
VIEW
  5
6
330
0
100
AcDbSymbolTable
 70
     0
  0
ENDTAB
  0
TABLE
  2
UCS
  5
7
330
0
100
AcDbSymbolTable
 70
     0
  0
ENDTAB
  0
TABLE
  2
APPID
  5
9
330
0
100
AcDbSymbolTable
 70
     3
  0
APPID
  5
10
330
9
100
AcDbSymbolTableRecord
100
AcDbRegAppTableRecord
  2
ACAD
 70
     0
  0
APPID
  5
F013
330
9
100
AcDbSymbolTableRecord
100
AcDbRegAppTableRecord
  2
CONTENTBLOCKDESCRIPTION
 70
     0
  0
APPID
  5
F014
330
9
100
AcDbSymbolTableRecord
100
AcDbRegAppTableRecord
  2
CONTENTBLOCKICON
 70
     0
  0
ENDTAB
  0
TABLE
  2
DIMSTYLE
  5
A
330
0
100
AcDbSymbolTable
 70
     3
  0
DIMSTYLE
105
1D
102
{ACAD_REACTORS
330
36D34
330
36DBD
330
36DC0
102
}
330
A
100
AcDbSymbolTableRecord
100
AcDbDimStyleTableRecord
  2
STANDARD
 70
     0
  3

  4

  5

  6

  7

 40
1.0
 41
0.18
 42
0.0625
 43
0.38
 44
0.18
 45
0.0
 46
0.0
 47
0.0
 48
0.0
140
0.18
141
0.09
142
0.0
143
25.4
144
1.0
145
0.0
146
1.0
147
0.09
 71
     0
 72
     0
 73
     1
 74
     1
 75
     0
 76
     0
 77
     0
 78
     0
170
     0
171
     2
172
     0
173
     0
174
     0
175
     0
176
     0
177
     0
178
     0
270
     2
271
     4
272
     4
273
     2
274
     2
340
F
275
     0
280
     0
281
     0
282
     0
283
     1
284
     0
285
     0
286
     0
287
     3
288
     0
  0
ENDTAB
  0
TABLE
  2
BLOCK_RECORD
  5
1
330
0
100
AcDbSymbolTable
 70
    40
  0
BLOCK_RECORD
  5
18
102
{ACAD_XDICTIONARY
360
EFC6
102
}
330
1
100
AcDbSymbolTableRecord
100
AcDbBlockTableRecord
  2
*MODEL_SPACE
  0
BLOCK_RECORD
  5
15
102
{ACAD_XDICTIONARY
360
EFC4
102
}
330
1
100
AcDbSymbolTableRecord
100
AcDbBlockTableRecord
  2
*PAPER_SPACE
  0
BLOCK_RECORD
  5
115C
330
1
100
AcDbSymbolTableRecord
100
AcDbBlockTableRecord
  2
機械A4横_LBP
  0
BLOCK_RECORD
  5
1215D
330
1
100
AcDbSymbolTableRecord
100
AcDbBlockTableRecord
  2
_OPEN30
  0
ENDTAB
  0
ENDSEC
  0
SECTION
  2
BLOCKS
  0
BLOCK
  5
19
330
18
100
AcDbEntity
  8
0
100
AcDbBlockBegin
  2
*MODEL_SPACE
 70
     0
 10
0.0
 20
0.0
 30
0.0
  3
*MODEL_SPACE
  1

  0
ENDBLK
  5
1A
330
18
100
AcDbEntity
  8
0
100
AcDbBlockEnd
  0
BLOCK
  5
16
330
15
100
AcDbEntity
 67
     1
  8
0
100
AcDbBlockBegin
  2
*PAPER_SPACE
 70
     0
 10
0.0
 20
0.0
 30
0.0
  3
*PAPER_SPACE
  1

  0
ENDBLK
  5
17
330
15
100
AcDbEntity
 67
     1
  8
0
100
AcDbBlockEnd
  0
BLOCK
  5
115D
330
115C
100
AcDbEntity
  8
0
100
AcDbBlockBegin
  2
機械A4横_LBP
 70
     0
 10
0.0
 20
0.0
 30
0.0
  3
機械A4横_LBP
  1

  0
ENDBLK
  5
115E
330
115C
100
AcDbEntity
  8
0
100
AcDbBlockEnd
  0
BLOCK
  5
12161
330
1215D
100
AcDbEntity
  8
0
100
AcDbBlockBegin
  2
_OPEN30
 70
     0
 10
0.0
 20
0.0
 30
0.0
  3
_OPEN30
  1

  0
LINE
  5
1215E
330
1215D
100
AcDbEntity
  8
0
  6
BYBLOCK
 62
     0
100
AcDbLine
 10
-1.0
 20
0.26794919
 30
0.0
 11
0.0
 21
0.0
 31
0.0
  0
LINE
  5
1215F
330
1215D
100
AcDbEntity
  8
0
  6
BYBLOCK
 62
     0
100
AcDbLine
 10
0.0
 20
0.0
 30
0.0
 11
-1.0
 21
-0.26794919
 31
0.0
  0
LINE
  5
12160
330
1215D
100
AcDbEntity
  8
0
  6
BYBLOCK
 62
     0
100
AcDbLine
 10
0.0
 20
0.0
 30
0.0
 11
-1.0
 21
0.0
 31
0.0
  0
ENDBLK
  5
12162
330
1215D
100
AcDbEntity
  8
0
100
AcDbBlockEnd
  0
ENDSEC
  0
SECTION
  2
ENTITIES
  0
INSERT
  5
1160
330
18
100
AcDbEntity
  8
FRAME025
100
AcDbBlockReference
  2
機械A4横_LBP
 10
116.0005962917457
 20
104.43790435724
 30
0.0
  0
MTEXT
  5
1405
330
18
100
AcDbEntity
  8
0
  6
DASHDOT
100
AcDbMText
 10
213.682726410024
 20
420.5785054452221
 30
0.0
 40
1.0
 41
2.0
 71
     1
 72
     5
  1

  7
BIGFONT
1001
ACAD
1000
MTEXTBEGIN
1070
    73
1070
     1
1070
    44
1040
1.0
1070
    74
1070
     0
1000
MTEXTEND
1000
MTEXTBEGIN
1070
    73
1070
     1
1070
    44
1040
1.0
1070
    74
1070
     0
1000
MTEXTEND
  0
MTEXT
  5
1406
330
18
100
AcDbEntity
  8
0
  6
CENTER
100
AcDbMText
 10
451.3606673541956
 20
313.7890106174461
 30
0.0
 40
2.0
 41
15.6417
 71
     1
 72
     5
  1

  7
BIGFONT
1001
ACAD
1000
MTEXTBEGIN
1070
    73
1070
     1
1070
    44
1040
1.0
1070
    74
1070
     0
1000
MTEXTEND
1000
MTEXTBEGIN
1070
    73
1070
     1
1070
    44
1040
1.0
1070
    74
1070
     0
1000
MTEXTEND
  0
MTEXT
  5
1407
330
18
100
AcDbEntity
  8
0
100
AcDbMText
 10
125.7723901704327
 20
212.8564838730205
 30
0.0
 40
2.0
 41
0.0
 71
     1
 72
     5
  1

1001
ACAD
1000
MTEXTBEGIN
1070
    73
1070
     1
1070
    44
1040
1.0
1070
    74
1070
     0
1000
MTEXTEND
1000
MTEXTBEGIN
1070
    73
1070
     1
1070
    44
1040
1.0
1070
    74
1070
     0
1000
MTEXTEND
  0
MTEXT
  5
1408
330
18
100
AcDbEntity
  8
0
100
AcDbMText
 10
170.1718819235825
 20
244.48796746601
 30
0.0
 40
2.0
 41
10.1453
 71
     1
 72
     5
  1

 11
-0.0000000000000002
 21
-1.0
 31
0.0
1001
ACAD
1000
MTEXTBEGIN
1070
    73
1070
     1
1070
    44
1040
1.0
1070
    74
1070
     0
1000
MTEXTEND
1000
MTEXTBEGIN
1070
    73
1070
     1
1070
    44
1040
1.0
1070
    74
1070
     0
1000
MTEXTEND
  0
MTEXT
  5
142F
330
18
100
AcDbEntity
  8
0
  6
BYBLOCK
100
AcDbMText
 10
205.9513799082503
 20
319.2674780082993
 30
0.0
 40
2.0
 41
0.0
 71
     7
 72
     5
  1

 11
0.0000000000000001
 21
1.0
 31
0.0
1001
ACAD
1000
MTEXTBEGIN
1070
    73
1070
     1
1070
    44
1040
1.0
1070
    74
1070
     0
1000
MTEXTEND
1000
MTEXTBEGIN
1070
    73
1070
     1
1070
    44
1040
1.0
1070
    74
1070
     0
1000
MTEXTEND
  0
MTEXT
  5
1430
330
18
100
AcDbEntity
  8
0
  6
BYBLOCK
100
AcDbMText
 10
170.4859915450975
 20
330.0607863667166
 30
0.0
 40
2.0
 41
0.0
 71
     4
 72
     5
  1

 11
-0.0000000000000002
 21
-1.0
 31
0.0
1001
ACAD
1000
MTEXTBEGIN
1070
    73
1070
     1
1070
    44
1040
1.0
1070
    74
1070
     0
1000
MTEXTEND
1000
MTEXTBEGIN
1070
    73
1070
     1
1070
    44
1040
1.0
1070
    74
1070
     0
1000
MTEXTEND
  0
MTEXT
  5
1532
330
18
100
AcDbEntity
  8
0
  6
DASHDOT
100
AcDbMText
 10
213.6828134149741
 20
420.5785054452221
 30
0.0
 40
1.0
 41
2.0
 71
     1
 72
     5
  1

  7
BIGFONT
1001
ACAD
1000
MTEXTBEGIN
1070
    73
1070
     1
1070
    44
1040
1.0
1070
    74
1070
     0
1000
MTEXTEND
1000
MTEXTBEGIN
1070
    73
1070
     1
1070
    44
1040
1.0
1070
    74
1070
     0
1000
MTEXTEND
  0
MTEXT
  5
1533
330
18
100
AcDbEntity
  8
0
  6
CENTER
100
AcDbMText
 10
451.360754359146
 20
313.7890106174461
 30
0.0
 40
2.0
 41
15.6417
 71
     1
 72
     5
  1

  7
BIGFONT
1001
ACAD
1000
MTEXTBEGIN
1070
    73
1070
     1
1070
    44
1040
1.0
1070
    74
1070
     0
1000
MTEXTEND
1000
MTEXTBEGIN
1070
    73
1070
     1
1070
    44
1040
1.0
1070
    74
1070
     0
1000
MTEXTEND
  0
MTEXT
  5
1534
330
18
100
AcDbEntity
  8
0
100
AcDbMText
 10
125.772477175383
 20
212.8564838730205
 30
0.0
 40
2.0
 41
0.0
 71
     1
 72
     5
  1

1001
ACAD
1000
MTEXTBEGIN
1070
    73
1070
     1
1070
    44
1040
1.0
1070
    74
1070
     0
1000
MTEXTEND
1000
MTEXTBEGIN
1070
    73
1070
     1
1070
    44
1040
1.0
1070
    74
1070
     0
1000
MTEXTEND
  0
MTEXT
  5
1535
330
18
100
AcDbEntity
  8
0
100
AcDbMText
 10
170.1719689285329
 20
244.48796746601
 30
0.0
 40
2.0
 41
10.1453
 71
     1
 72
     5
  1

 11
-0.0000000000000002
 21
-1.0
 31
0.0
1001
ACAD
1000
MTEXTBEGIN
1070
    73
1070
     1
1070
    44
1040
1.0
1070
    74
1070
     0
1000
MTEXTEND
1000
MTEXTBEGIN
1070
    73
1070
     1
1070
    44
1040
1.0
1070
    74
1070
     0
1000
MTEXTEND
  0
MTEXT
  5
155C
330
18
100
AcDbEntity
  8
0
  6
BYBLOCK
100
AcDbMText
 10
205.9514669132004
 20
319.2674780082993
 30
0.0
 40
2.0
 41
0.0
 71
     7
 72
     5
  1

 11
0.0000000000000001
 21
1.0
 31
0.0
1001
ACAD
1000
MTEXTBEGIN
1070
    73
1070
     1
1070
    44
1040
1.0
1070
    74
1070
     0
1000
MTEXTEND
1000
MTEXTBEGIN
1070
    73
1070
     1
1070
    44
1040
1.0
1070
    74
1070
     0
1000
MTEXTEND
  0
MTEXT
  5
155D
330
18
100
AcDbEntity
  8
0
  6
BYBLOCK
100
AcDbMText
 10
170.4860785500478
 20
330.0607863667166
 30
0.0
 40
2.0
 41
0.0
 71
     4
 72
     5
  1

 11
-0.0000000000000002
 21
-1.0
 31
0.0
1001
ACAD
1000
MTEXTBEGIN
1070
    73
1070
     1
1070
    44
1040
1.0
1070
    74
1070
     0
1000
MTEXTEND
1000
MTEXTBEGIN
1070
    73
1070
     1
1070
    44
1040
1.0
1070
    74
1070
     0
1000
MTEXTEND
  0
TEXT
  5
2279
330
18
100
AcDbEntity
  8
A
100
AcDbText
 10
12.18118962679618
 20
312.0637567728283
 30
0.0
 40
3.524999999999999
  1
�    
100
AcDbText
  0
TEXT
  5
2283
330
18
100
AcDbEntity
  8
A
100
AcDbText
 10
-135.7439103235753
 20
-117.903263345534
 30
0.0
 40
2.5
  1

 41
0.5
  7
MSｺ_ｼｯｸ
100
AcDbText
  0
TEXT
  5
2293
330
18
100
AcDbEntity
  8
A
100
AcDbText
 10
-127.9189103235752
 20
-117.903263345534
 30
0.0
 40
2.5
  1

  7
MSｺ_ｼｯｸ
100
AcDbText
  0
ARC
  5
26322
330
18
100
AcDbEntity
  8
0
100
AcDbCircle
 10
29.94014639704733
 20
-382.3309453897621
 30
0.0
 40
54.0
100
AcDbArc
 50
270.0
 51
90.0
  0
ARC
  5
26326
330
18
100
AcDbEntity
  8
0
100
AcDbCircle
 10
29.9401463970471
 20
-382.3309453897621
 30
0.0
 40
48.0
100
AcDbArc
 50
262.0969278549051
 51
287.9030721451001
  0
ARC
  5
26327
330
18
100
AcDbEntity
  8
0
100
AcDbCircle
 10
29.9401463970471
 20
-382.3309453897621
 30
0.0
 40
48.0
100
AcDbArc
 50
82.09692785490513
 51
107.903072145092
  0
LINE
  5
2632B
330
18
100
AcDbEntity
  8
中心線
100
AcDbLine
 10
-65.05985360295267
 20
-382.3309453897623
 30
0.0
 11
124.9401463970472
 21
-382.3309453897623
 31
0.0
  0
CIRCLE
  5
2632D
330
18
100
AcDbEntity
  8
0
100
AcDbCircle
 10
29.94014639704733
 20
-382.3309453897623
 30
0.0
 40
88.75
  0
LINE
  5
2632F
330
18
100
AcDbEntity
  8
0
100
AcDbLine
 10
47.42764192956985
 20
-657.7541992572712
 30
0.0
 11
12.45265086452434
 21
-657.7541992572681
 31
0.0
  0
LINE
  5
26330
330
18
100
AcDbEntity
  8
0
100
AcDbLine
 10
29.94014639704733
 20
-666.3541992572677
 30
0.0
 11
116.4401463970477
 21
-666.3541992572739
 31
0.0
  0
LINE
  5
26331
330
18
100
AcDbEntity
  8
0
100
AcDbLine
 10
83.94014639704733
 20
-624.8541992572734
 30
0.0
 11
29.94014639704733
 21
-624.8541992572734
 31
0.0
  0
LINE
  5
26335
330
18
100
AcDbEntity
  8
0
100
AcDbLine
 10
77.44590637781969
 20
-621.8541992572734
 30
0.0
 11
29.9401463970471
 21
-621.8541992572734
 31
0.0
  0
LINE
  5
26336
330
18
100
AcDbEntity
  8
破線
100
AcDbLine
 10
29.94014639704733
 20
-664.8541992572734
 30
0.0
 11
77.92072007807917
 21
-664.8510939401746
 31
0.0
  0
LINE
  5
26352
330
18
100
AcDbEntity
  8
0
100
AcDbLine
 10
-76.05985360295291
 20
-653.8541992605737
 30
0.0
 11
-86.11632925531012
 21
-653.8541992605737
 31
0.0
  0
LINE
  5
26353
330
18
100
AcDbEntity
  8
0
100
AcDbLine
 10
-76.05985360295291
 20
-658.8541992539734
 30
0.0
 11
-86.11632925531102
 21
-658.8541992539734
 31
0.0
  0
LINE
  5
26355
330
18
100
AcDbEntity
  8
中心線
100
AcDbLine
 10
-54.47028588351805
 20
-656.3541992572733
 30
0.0
 11
-102.2835873973432
 21
-656.3541992572733
 31
0.0
  0
LINE
  5
26367
330
18
100
AcDbEntity
  8
0
100
AcDbLine
 10
-88.00894885478694
 20
-658.8541992539732
 30
0.0
 11
-197.2238524406881
 21
-658.8541992539732
 31
0.0
  0
LINE
  5
26368
330
18
100
AcDbEntity
  8
0
100
AcDbLine
 10
-88.00894885478694
 20
-653.8541992605733
 30
0.0
 11
-197.2238524406881
 21
-653.8541992605733
 31
0.0
  0
ARC
  5
2636E
330
18
100
AcDbEntity
  8
細線
100
AcDbCircle
 10
-84.71120670191657
 20
-655.1041992589232
 30
0.0
 40
1.880656636903949
100
AcDbArc
 50
138.3436407292579
 51
221.6563592707419
  0
ARC
  5
2636F
330
18
100
AcDbEntity
  8
細線
100
AcDbCircle
 10
-87.52145180870412
 20
-655.1041992589232
 30
0.0
 40
1.880656636903949
100
AcDbArc
 50
318.343640729258
 51
41.656359270742
  0
ARC
  5
26370
330
18
100
AcDbEntity
  8
細線
100
AcDbCircle
 10
-84.71120670191703
 20
-657.6041992556232
 30
0.0
 40
1.880656636903949
100
AcDbArc
 50
138.3436407292579
 51
221.6563592707419
  0
ARC
  5
26371
330
18
100
AcDbEntity
  8
細線
100
AcDbCircle
 10
-89.41407140818069
 20
-657.6041992556232
 30
0.0
 40
1.880656636903949
100
AcDbArc
 50
318.3436407292488
 51
41.6563592707512
  0
ARC
  5
26372
330
18
100
AcDbEntity
  8
細線
100
AcDbCircle
 10
-86.60382630139316
 20
-657.6041992556232
 30
0.0
 40
1.880656636903949
100
AcDbArc
 50
138.3436407292487
 51
221.656359270751
  0
ARC
  5
26373
330
18
100
AcDbEntity
  8
細線
100
AcDbCircle
 10
-89.41407140818069
 20
-655.1041992589232
 30
0.0
 40
1.880656636903949
100
AcDbArc
 50
318.3436407292488
 51
41.6563592707512
  0
LINE
  5
26377
330
18
100
AcDbEntity
  8
0
100
AcDbLine
 10
29.9401463970471
 20
-645.7541992572676
 30
0.0
 11
-58.80985360295267
 21
-645.7541992572672
 31
0.0
  0
LINE
  5
26378
330
18
100
AcDbEntity
  8
0
100
AcDbLine
 10
12.45265086452389
 20
-646.3541992572741
 30
0.0
 11
-56.55985360295312
 21
-646.3541992572737
 31
0.0
  0
LINE
  5
26379
330
18
100
AcDbEntity
  8
0
100
AcDbLine
 10
29.94014639704733
 20
-666.3541992572677
 30
0.0
 11
-56.55985360295312
 21
-666.3541992572739
 31
0.0
  0
LINE
  5
2637C
330
18
100
AcDbEntity
  8
0
100
AcDbLine
 10
-56.55985360295312
 20
-666.3541992572739
 30
0.0
 11
-56.55985360295312
 21
-646.3541992572737
 31
0.0
  0
LINE
  5
2637D
330
18
100
AcDbEntity
  8
0
100
AcDbLine
 10
-71.55985360295287
 20
-646.854199257273
 30
0.0
 11
-76.05985360295291
 21
-652.1256278287022
 31
0.0
  0
LINE
  5
2637E
330
18
100
AcDbEntity
  8
0
100
AcDbLine
 10
-58.30985360295267
 20
-645.7541992572727
 30
0.0
 11
-58.30985360295267
 21
-646.854199257273
 31
0.0
  0
LINE
  5
2637F
330
18
100
AcDbEntity
  8
0
100
AcDbLine
 10
-72.55985360295291
 20
-648.0256278287022
 30
0.0
 11
-72.55985360295291
 21
-656.3541992572733
 31
0.0
  0
LINE
  5
26380
330
18
100
AcDbEntity
  8
0
100
AcDbLine
 10
-60.55985360295313
 20
-646.854199257273
 30
0.0
 11
-60.5598536029529
 21
-665.8541992572732
 31
0.0
  0
LINE
  5
26381
330
18
100
AcDbEntity
  8
0
100
AcDbLine
 10
-65.5598536029529
 20
-646.854199257273
 30
0.0
 11
-65.5598536029529
 21
-665.8541992572732
 31
0.0
  0
LINE
  5
26382
330
18
100
AcDbEntity
  8
0
100
AcDbLine
 10
-62.5598536029529
 20
-646.854199257273
 30
0.0
 11
-62.5598536029529
 21
-665.8541992572732
 31
0.0
  0
ARC
  5
26383
330
18
100
AcDbEntity
  8
0
100
AcDbCircle
 10
-64.73359374670167
 20
-651.6041992572736
 30
0.0
 40
7.848428098993441
100
AcDbArc
 50
150.4309251395753
 51
209.5690748604245
  0
LINE
  5
26384
330
18
100
AcDbEntity
  8
0
100
AcDbLine
 10
-65.5598536029529
 20
-665.8541992572732
 30
0.0
 11
-71.55985360295287
 21
-665.8541992572732
 31
0.0
  0
LINE
  5
26385
330
18
100
AcDbEntity
  8
0
100
AcDbLine
 10
-71.55985360295287
 20
-655.4771826034811
 30
0.0
 11
-65.5598536029529
 21
-655.4771826034811
 31
0.0
  0
LINE
  5
26386
330
18
100
AcDbEntity
  8
0
100
AcDbLine
 10
-71.55985360295287
 20
-657.2312159110656
 30
0.0
 11
-65.5598536029529
 21
-657.2312159110656
 31
0.0
  0
LINE
  5
26387
330
18
100
AcDbEntity
  8
0
100
AcDbLine
 10
-71.55985360295287
 20
-664.9771826034807
 30
0.0
 11
-65.5598536029529
 21
-664.9771826034807
 31
0.0
  0
LINE
  5
26388
330
18
100
AcDbEntity
  8
0
100
AcDbLine
 10
-72.55985360295291
 20
-664.6827706858447
 30
0.0
 11
-72.55985360295291
 21
-656.3541992572733
 31
0.0
  0
LINE
  5
26389
330
18
100
AcDbEntity
  8
0
100
AcDbLine
 10
-71.55985360295287
 20
-657.2312159110656
 30
0.0
 11
-71.55985360295287
 21
-655.4771826034811
 31
0.0
  0
ARC
  5
2638A
330
18
100
AcDbEntity
  8
0
100
AcDbCircle
 10
-64.73359374670167
 20
-661.104199257273
 30
0.0
 40
7.848428098993441
100
AcDbArc
 50
150.4309251395753
 51
209.5690748604245
  0
LINE
  5
2638B
330
18
100
AcDbEntity
  8
0
100
AcDbLine
 10
-71.55985360295287
 20
-664.9771826034807
 30
0.0
 11
-71.55985360295287
 21
-665.8541992572732
 31
0.0
  0
LINE
  5
2638C
330
18
100
AcDbEntity
  8
0
100
AcDbLine
 10
-71.55985360295287
 20
-665.8541992572732
 30
0.0
 11
-76.05985360295291
 21
-660.5827706858445
 31
0.0
  0
LINE
  5
2638D
330
18
100
AcDbEntity
  8
0
100
AcDbLine
 10
-76.05985360295291
 20
-652.1256278287022
 30
0.0
 11
-76.05985360295291
 21
-660.5827706858445
 31
0.0
  0
LINE
  5
2638E
330
18
100
AcDbEntity
  8
0
100
AcDbLine
 10
-60.5598536029529
 20
-663.7541992572737
 30
0.0
 11
-62.5598536029529
 21
-663.7541992572737
 31
0.0
  0
LINE
  5
2638F
330
18
100
AcDbEntity
  8
0
100
AcDbLine
 10
-62.5598536029529
 20
-665.8541992572732
 30
0.0
 11
-65.5598536029529
 21
-665.8541992572732
 31
0.0
  0
LINE
  5
26391
330
18
100
AcDbEntity
  8
0
100
AcDbLine
 10
-57.55985360295312
 20
-665.8541992572732
 30
0.0
 11
-60.5598536029529
 21
-665.8541992572732
 31
0.0
  0
LINE
  5
26392
330
18
100
AcDbEntity
  8
0
100
AcDbLine
 10
-57.5598536029529
 20
-646.854199257273
 30
0.0
 11
-57.5598536029529
 21
-665.8541992572732
 31
0.0
  0
LINE
  5
26393
330
18
100
AcDbEntity
  8
0
100
AcDbLine
 10
-56.55985360295312
 20
-665.3541992572733
 30
0.0
 11
-57.55985360295312
 21
-665.3541992572733
 31
0.0
  0
LINE
  5
26394
330
18
100
AcDbEntity
  8
0
100
AcDbLine
 10
-65.5598536029529
 20
-646.854199257273
 30
0.0
 11
-71.55985360295287
 21
-646.854199257273
 31
0.0
  0
LINE
  5
26395
330
18
100
AcDbEntity
  8
0
100
AcDbLine
 10
-71.55985360295287
 20
-647.7312159110656
 30
0.0
 11
-65.5598536029529
 21
-647.7312159110656
 31
0.0
  0
LINE
  5
26396
330
18
100
AcDbEntity
  8
0
100
AcDbLine
 10
-71.55985360295287
 20
-647.7312159110656
 30
0.0
 11
-71.55985360295287
 21
-646.854199257273
 31
0.0
  0
LINE
  5
26397
330
18
100
AcDbEntity
  8
0
100
AcDbLine
 10
-58.8098536029529
 20
-627.5541992572672
 30
0.0
 11
-58.80985360295267
 21
-645.7541992572676
 31
0.0
  0
LINE
  5
26398
330
18
100
AcDbEntity
  8
0
100
AcDbLine
 10
-60.5598536029529
 20
-648.9541992572736
 30
0.0
 11
-62.5598536029529
 21
-648.9541992572736
 31
0.0
  0
LINE
  5
26399
330
18
100
AcDbEntity
  8
0
100
AcDbLine
 10
-62.5598536029529
 20
-646.854199257273
 30
0.0
 11
-65.5598536029529
 21
-646.854199257273
 31
0.0
  0
LINE
  5
2639A
330
18
100
AcDbEntity
  8
0
100
AcDbLine
 10
-58.30985360295267
 20
-645.7541992572727
 30
0.0
 11
-58.80985360295267
 21
-645.7541992572676
 31
0.0
  0
LINE
  5
2639E
330
18
100
AcDbEntity
  8
中心線
100
AcDbLine
 10
-42.53829867457375
 20
-644.8541992572677
 30
0.0
 11
-42.53829867457375
 21
-667.854199257268
 31
0.0
  0
LINE
  5
263A2
330
18
100
AcDbEntity
  8
破線
100
AcDbLine
 10
29.94014639704733
 20
-664.8541992572734
 30
0.0
 11
-18.04042728398449
 21
-664.8510939401746
 31
0.0
  0
LINE
  5
263A3
330
18
100
AcDbEntity
  8
0
100
AcDbLine
 10
-24.05985360295267
 20
-624.8541992572727
 30
0.0
 11
29.94014639704733
 21
-624.8541992572777
 31
0.0
  0
LINE
  5
263A4
330
18
100
AcDbEntity
  8
0
100
AcDbLine
 10
-17.55560417076913
 20
-621.8541992572734
 30
0.0
 11
29.94014639704755
 21
-621.8541992572734
 31
0.0
  0
LINE
  5
263A5
330
18
100
AcDbEntity
  8
破線
100
AcDbLine
 10
-18.04042728398449
 20
-664.8510887625507
 30
0.0
 11
-18.04042728398449
 21
-666.3510887625513
 31
0.0
  0
LINE
  5
263A6
330
18
100
AcDbEntity
  8
0
100
AcDbLine
 10
-17.55560417076913
 20
-621.8541992572734
 30
0.0
 11
-18.05560417076913
 21
-622.3541992572734
 31
0.0
  0
LINE
  5
263A7
330
18
100
AcDbEntity
  8
0
100
AcDbLine
 10
-24.05985360295267
 20
-624.8541992572731
 30
0.0
 11
-24.05985360295267
 21
-626.1541992572703
 31
0.0
  0
LINE
  5
263A8
330
18
100
AcDbEntity
  8
0
100
AcDbLine
 10
-18.05560417076913
 20
-622.3541992572734
 30
0.0
 11
-18.05560417076913
 21
-624.8541992572734
 31
0.0
  0
LINE
  5
263A9
330
18
100
AcDbEntity
  8
0
100
AcDbLine
 10
12.45265086452434
 20
-657.7541992572681
 30
0.0
 11
12.45265086452434
 21
-646.3541992572682
 31
0.0
  0
LINE
  5
263AA
330
18
100
AcDbEntity
  8
破線
100
AcDbLine
 10
12.44015110352528
 20
-621.8541992572734
 30
0.0
 11
12.44015110352506
 21
-664.8541992572734
 31
0.0
  0
LINE
  5
263AB
330
18
100
AcDbEntity
  8
中心線
100
AcDbLine
 10
29.94014639704733
 20
-617.3541992572752
 30
0.0
 11
29.94014639704733
 21
-671.3541992572734
 31
0.0
  0
LINE
  5
263B8
330
18
100
AcDbEntity
  8
0
100
AcDbLine
 10
-76.05985360295267
 20
-427.8309453930618
 30
0.0
 11
-86.11632925531081
 21
-427.8309453930618
 31
0.0
  0
LINE
  5
263B9
330
18
100
AcDbEntity
  8
0
100
AcDbLine
 10
-76.05985360295267
 20
-432.8309453864617
 30
0.0
 11
-86.11632925531012
 21
-432.8309453864617
 31
0.0
  0
LINE
  5
263F0
330
18
100
AcDbEntity
  8
0
100
AcDbLine
 10
-88.00894885478667
 20
-432.8309453864623
 30
0.0
 11
-197.2238524406881
 21
-432.8309453864623
 31
0.0
  0
LINE
  5
263F1
330
18
100
AcDbEntity
  8
0
100
AcDbLine
 10
-88.00894885478667
 20
-427.8309453930623
 30
0.0
 11
-197.2238524406881
 21
-427.8309453930622
 31
0.0
  0
ARC
  5
263F7
330
18
100
AcDbEntity
  8
細線
100
AcDbCircle
 10
-84.71120670191703
 20
-431.5809453881124
 30
0.0
 40
1.880656636903949
100
AcDbArc
 50
138.3436407292487
 51
221.656359270751
  0
ARC
  5
263F8
330
18
100
AcDbEntity
  8
細線
100
AcDbCircle
 10
-89.41407140818045
 20
-431.5809453881121
 30
0.0
 40
1.880656636903949
100
AcDbArc
 50
318.3436407292488
 51
41.6563592707512
  0
ARC
  5
263F9
330
18
100
AcDbEntity
  8
細線
100
AcDbCircle
 10
-86.60382630139293
 20
-431.5809453881121
 30
0.0
 40
1.880656636903949
100
AcDbArc
 50
138.3436407292487
 51
221.656359270751
  0
ARC
  5
263FA
330
18
100
AcDbEntity
  8
細線
100
AcDbCircle
 10
-87.52145180870391
 20
-429.0809453914127
 30
0.0
 40
1.880656636903949
100
AcDbArc
 50
318.3436407292488
 51
41.6563592707512
  0
ARC
  5
263FB
330
18
100
AcDbEntity
  8
細線
100
AcDbCircle
 10
-84.71120670191636
 20
-429.0809453914127
 30
0.0
 40
1.880656636903949
100
AcDbArc
 50
138.3436407292487
 51
221.656359270751
  0
ARC
  5
263FC
330
18
100
AcDbEntity
  8
細線
100
AcDbCircle
 10
-89.41407140818045
 20
-429.0809453914122
 30
0.0
 40
1.880656636903949
100
AcDbArc
 50
318.3436407292488
 51
41.6563592707512
  0
LINE
  5
263FD
330
18
100
AcDbEntity
  8
0
100
AcDbLine
 10
-196.7147596832908
 20
-333.0576213605551
 30
0.0
 11
-219.1147596832909
 21
-329.2731464747104
 31
0.0
  0
LINE
  5
263FE
330
18
100
AcDbEntity
  8
0
100
AcDbLine
 10
-219.1147596832909
 20
-334.3488314062172
 30
0.0
 11
-196.7147596832908
 21
-334.3488314062172
 31
0.0
  0
LINE
  5
263FF
330
18
100
AcDbEntity
  8
0
100
AcDbLine
 10
-196.7147596832908
 20
-335.6400414518793
 30
0.0
 11
-219.1147596832909
 21
-339.424516337724
 31
0.0
  0
LINE
  5
26438
330
18
100
AcDbEntity
  8
0
100
AcDbLine
 10
-196.7147596832908
 20
-337.2888314062174
 30
0.0
 11
-182.9530688174752
 21
-337.2888314062174
 31
0.0
  0
LINE
  5
26439
330
18
100
AcDbEntity
  8
0
100
AcDbLine
 10
-196.7147596832908
 20
-331.4088314062173
 30
0.0
 11
-182.9530688174752
 21
-331.4088314062173
 31
0.0
  0
LINE
  5
2643A
330
18
100
AcDbEntity
  8
0
100
AcDbLine
 10
-196.7147596832908
 20
-337.2888314062174
 30
0.0
 11
-196.7147596832908
 21
-331.4088314062173
 31
0.0
  0
LINE
  5
2643B
330
18
100
AcDbEntity
  8
0
100
AcDbLine
 10
-182.9530688174752
 20
-331.4088314062173
 30
0.0
 11
-182.9530688174752
 21
-337.2888314062174
 31
0.0
  0
ARC
  5
2643C
330
18
100
AcDbEntity
  8
細線
100
AcDbCircle
 10
-126.9342361265415
 20
-344.2809453897603
 30
0.0
 40
1.579751577084588
100
AcDbArc
 50
138.3436407292487
 51
221.656359270751
  0
ARC
  5
2643D
330
18
100
AcDbEntity
  8
細線
100
AcDbCircle
 10
-132.1333717638825
 20
-344.2809453897591
 30
0.0
 40
1.579751577084588
100
AcDbArc
 50
318.3436407292488
 51
41.6563592707512
  0
ARC
  5
2643E
330
18
100
AcDbEntity
  8
細線
100
AcDbCircle
 10
-126.9342361265415
 20
-346.3809453897602
 30
0.0
 40
1.579751577084588
100
AcDbArc
 50
138.3436407292487
 51
221.656359270751
  0
ARC
  5
2643F
330
18
100
AcDbEntity
  8
細線
100
AcDbCircle
 10
-129.7727658710646
 20
-346.3809453897592
 30
0.0
 40
1.579751577084588
100
AcDbArc
 50
138.3436407292487
 51
221.656359270751
  0
ARC
  5
26440
330
18
100
AcDbEntity
  8
細線
100
AcDbCircle
 10
-132.1333717638825
 20
-346.3809453897592
 30
0.0
 40
1.579751577084588
100
AcDbArc
 50
318.3436407292488
 51
41.6563592707512
  0
ARC
  5
26441
330
18
100
AcDbEntity
  8
細線
100
AcDbCircle
 10
-129.2948420193591
 20
-344.2809453897603
 30
0.0
 40
1.579751577084588
100
AcDbArc
 50
318.3436407292488
 51
41.6563592707512
  0
CIRCLE
  5
26444
330
18
100
AcDbEntity
  8
細線
100
AcDbCircle
 10
-19.6941643547683
 20
-373.5790772353502
 30
0.0
 40
2.74999999744107
  0
CIRCLE
  5
26445
330
18
100
AcDbEntity
  8
0
100
AcDbCircle
 10
-19.6941643547683
 20
-373.5790772353493
 30
0.0
 40
3.0
  0
ARC
  5
26447
330
18
100
AcDbEntity
  8
0
100
AcDbCircle
 10
29.9401463970471
 20
-382.3309453897621
 30
0.0
 40
48.0
100
AcDbArc
 50
142.0969278549216
 51
167.9030721450724
  0
ARC
  5
26448
330
18
100
AcDbEntity
  8
0
100
AcDbCircle
 10
29.94014639704733
 20
-382.3309453897621
 30
0.0
 40
54.0
100
AcDbArc
 50
90.0
 51
270.0
  0
LINE
  5
26449
330
18
100
AcDbEntity
  8
中心線
100
AcDbLine
 10
29.94014639704733
 20
-477.3309453897626
 30
0.0
 11
29.94014639704733
 21
-287.3309453897622
 31
0.0
  0
SOLID
  5
2644B
330
18
100
AcDbEntity
  8
0
  6
BYBLOCK
 62
     0
100
AcDbTrace
 10
-28.55985360295267
 20
-380.0215443097621
 30
0.0
 11
-24.55985360295267
 21
-382.3309453897621
 31
0.0
 12
-28.55985360295267
 22
-384.6403464697621
 32
0.0
 13
-28.55985360295267
 23
-384.6403464697621
 33
0.0
  0
LINE
  5
2644C
330
18
100
AcDbEntity
  8
0
100
AcDbLine
 10
-41.55985360295267
 20
-468.8309453897621
 30
0.0
 11
10.08284295473652
 21
-468.8309453897621
 31
0.0
  0
LINE
  5
2644D
330
18
100
AcDbEntity
  8
中心線
 48
0.8
100
AcDbLine
 10
-33.0699680120158
 20
-445.3410597988222
 30
0.0
 11
-52.00662933713489
 21
-464.2777211239413
 31
0.0
  0
ARC
  5
2644E
330
18
100
AcDbEntity
  8
中心線
 48
0.8
100
AcDbCircle
 10
29.94014639704733
 20
-382.3309453897623
 30
0.0
 40
102.4999999999999
100
AcDbArc
 50
215.0296803053679
 51
234.9703196946318
  0
CIRCLE
  5
26450
330
18
100
AcDbEntity
  8
0
100
AcDbCircle
 10
-42.53829867457375
 20
-454.8093904613828
 30
0.0
 40
5.5
  0
LINE
  5
26457
330
18
100
AcDbEntity
  8
0
100
AcDbLine
 10
-56.55985360295267
 20
-453.8309453897623
 30
0.0
 11
-56.55985360295267
 21
-402.1882488320728
 31
0.0
  0
LINE
  5
26458
330
18
100
AcDbEntity
  8
0
100
AcDbLine
 10
-71.55985360295267
 20
-425.8588094347626
 30
0.0
 11
-65.55985360295267
 21
-425.8588094347626
 31
0.0
  0
LINE
  5
26459
330
18
100
AcDbEntity
  8
0
100
AcDbLine
 10
-71.55985360295267
 20
-424.3397720313103
 30
0.0
 11
-65.55985360295267
 21
-424.3397720313103
 31
0.0
  0
LINE
  5
2645A
330
18
100
AcDbEntity
  8
0
100
AcDbLine
 10
-65.55985360295267
 20
-419.830945389762
 30
0.0
 11
-71.55985360295244
 21
-419.830945389762
 31
0.0
  0
LINE
  5
2645B
330
18
100
AcDbEntity
  8
0
100
AcDbLine
 10
-65.55985360295267
 20
-436.3221187482145
 30
0.0
 11
-71.55985360295267
 21
-436.3221187482145
 31
0.0
  0
LINE
  5
2645C
330
18
100
AcDbEntity
  8
0
100
AcDbLine
 10
-65.55985360295267
 20
-440.8309453897621
 30
0.0
 11
-71.55985360295267
 21
-440.8309453897621
 31
0.0
  0
LINE
  5
2645D
330
18
100
AcDbEntity
  8
0
100
AcDbLine
 10
-65.55985360295267
 20
-434.8030813447619
 30
0.0
 11
-71.55985360295267
 21
-434.8030813447619
 31
0.0
  0
LINE
  5
2645E
330
18
100
AcDbEntity
  8
0
100
AcDbLine
 10
-72.55985360295245
 20
-439.6595168183335
 30
0.0
 11
-72.55985360295267
 21
-421.0023739611909
 31
0.0
  0
ARC
  5
2645F
330
18
100
AcDbEntity
  8
0
100
AcDbCircle
 10
-62.05985360295223
 20
-430.3309453897623
 30
0.0
 40
10.50000000000042
100
AcDbArc
 50
154.7912347032448
 51
205.208765296755
  0
LINE
  5
26460
330
18
100
AcDbEntity
  8
0
100
AcDbLine
 10
-76.05985360295267
 20
-435.5595168183346
 30
0.0
 11
-76.05985360295267
 21
-425.1023739611897
 31
0.0
  0
LINE
  5
26461
330
18
100
AcDbEntity
  8
0
100
AcDbLine
 10
-71.55985360295222
 20
-440.8309453897621
 30
0.0
 11
-76.05985360295267
 21
-435.5595168183343
 31
0.0
  0
LINE
  5
26462
330
18
100
AcDbEntity
  8
0
100
AcDbLine
 10
-71.55985360295267
 20
-436.3221187482145
 30
0.0
 11
-71.55985360295267
 21
-434.8030813447619
 31
0.0
  0
ARC
  5
26463
330
18
100
AcDbEntity
  8
0
100
AcDbCircle
 10
-63.58605708538289
 20
-440.5298605763522
 30
0.0
 40
9.015903847971632
100
AcDbArc
 50
152.1795611441596
 51
174.4603666814934
  0
ARC
  5
26464
330
18
100
AcDbEntity
  8
0
100
AcDbCircle
 10
-63.58605708538289
 20
-420.1320302031724
 30
0.0
 40
9.015903847971632
100
AcDbArc
 50
185.5396333185065
 51
207.82043885584
  0
LINE
  5
26465
330
18
100
AcDbEntity
  8
0
100
AcDbLine
 10
-71.55985360295244
 20
-419.830945389762
 30
0.0
 11
-76.05985360295267
 21
-425.1023739611897
 31
0.0
  0
LINE
  5
26466
330
18
100
AcDbEntity
  8
0
100
AcDbLine
 10
-71.55985360295267
 20
-425.8588094347626
 30
0.0
 11
-71.55985360295267
 21
-424.3397720313103
 31
0.0
  0
LINE
  5
26467
330
18
100
AcDbEntity
  8
0
100
AcDbLine
 10
-57.55985360295312
 20
-419.830945389762
 30
0.0
 11
-57.55985360295312
 21
-440.8309453897621
 31
0.0
  0
LINE
  5
26468
330
18
100
AcDbEntity
  8
0
100
AcDbLine
 10
-62.55985360295267
 20
-439.8309453897621
 30
0.0
 11
-62.55985360295267
 21
-420.8309453897623
 31
0.0
  0
LINE
  5
26469
330
18
100
AcDbEntity
  8
0
100
AcDbLine
 10
-65.55985360295267
 20
-440.8309453897621
 30
0.0
 11
-65.55985360295267
 21
-419.830945389762
 31
0.0
  0
LINE
  5
2646A
330
18
100
AcDbEntity
  8
0
100
AcDbLine
 10
-60.55985360295267
 20
-440.8309453897621
 30
0.0
 11
-60.55985360295267
 21
-419.830945389762
 31
0.0
  0
LINE
  5
2646B
330
18
100
AcDbEntity
  8
0
100
AcDbLine
 10
-60.55985360295267
 20
-437.7309453897618
 30
0.0
 11
-62.55985360295267
 21
-437.7309453897618
 31
0.0
  0
LINE
  5
2646C
330
18
100
AcDbEntity
  8
0
100
AcDbLine
 10
-62.55985360295267
 20
-439.8309453897621
 30
0.0
 11
-65.55985360295267
 21
-439.8309453897621
 31
0.0
  0
LINE
  5
2646D
330
18
100
AcDbEntity
  8
0
100
AcDbLine
 10
-57.55985360295312
 20
-436.3221187482145
 30
0.0
 11
-60.55985360295267
 21
-436.3221187482145
 31
0.0
  0
LINE
  5
2646E
330
18
100
AcDbEntity
  8
0
100
AcDbLine
 10
-57.55985360295312
 20
-440.8309453897621
 30
0.0
 11
-60.55985360295267
 21
-440.8309453897621
 31
0.0
  0
LINE
  5
2646F
330
18
100
AcDbEntity
  8
0
100
AcDbLine
 10
-57.55985360295312
 20
-434.8030813447619
 30
0.0
 11
-60.55985360295267
 21
-434.8030813447619
 31
0.0
  0
LINE
  5
26470
330
18
100
AcDbEntity
  8
0
100
AcDbLine
 10
-56.55985360295267
 20
-439.3309453897622
 30
0.0
 11
-57.55985360295312
 21
-439.3309453897622
 31
0.0
  0
LINE
  5
26472
330
18
100
AcDbEntity
  8
0
100
AcDbLine
 10
-60.55985360295267
 20
-422.9309453897616
 30
0.0
 11
-62.55985360295267
 21
-422.9309453897616
 31
0.0
  0
LINE
  5
26473
330
18
100
AcDbEntity
  8
0
100
AcDbLine
 10
-62.55985360295267
 20
-420.8309453897623
 30
0.0
 11
-65.55985360295267
 21
-420.8309453897623
 31
0.0
  0
LINE
  5
26474
330
18
100
AcDbEntity
  8
0
100
AcDbLine
 10
-60.55985360295267
 20
-424.3397720313103
 30
0.0
 11
-57.55985360295312
 21
-424.3397720313103
 31
0.0
  0
LINE
  5
26475
330
18
100
AcDbEntity
  8
0
100
AcDbLine
 10
-60.55985360295267
 20
-425.8588094347626
 30
0.0
 11
-57.55985360295312
 21
-425.8588094347626
 31
0.0
  0
LINE
  5
26476
330
18
100
AcDbEntity
  8
0
100
AcDbLine
 10
-57.55985360295312
 20
-419.830945389762
 30
0.0
 11
-60.55985360295267
 21
-419.830945389762
 31
0.0
  0
LINE
  5
26477
330
18
100
AcDbEntity
  8
0
100
AcDbLine
 10
-56.55985360295267
 20
-421.3309453897623
 30
0.0
 11
-57.55985360295334
 21
-421.3309453897623
 31
0.0
  0
ARC
  5
264A8
330
18
100
AcDbEntity
  8
0
100
AcDbCircle
 10
29.9401463970471
 20
-382.3309453897621
 30
0.0
 40
48.0
100
AcDbArc
 50
232.0969278549124
 51
257.9030721450992
  0
CIRCLE
  5
264A9
330
18
100
AcDbEntity
  8
細線
100
AcDbCircle
 10
-5.297897986424118
 20
-411.8991754353436
 30
0.0
 40
1.499999999999943
  0
ARC
  5
264AA
330
18
100
AcDbEntity
  8
0
100
AcDbCircle
 10
29.9401463970471
 20
-382.3309453897621
 30
0.0
 40
48.0
100
AcDbArc
 50
202.0969278549169
 51
227.9030721450961
  0
LWPOLYLINE
  5
264AB
330
18
100
AcDbEntity
  8
細線
100
AcDbPolyline
 90
        6
 70
     1
 43
0.0
 10
-1.034902126902919
 20
-421.1902279840565
 10
-1.528562717245563
 20
-419.8338974376929
 10
-2.950009721496256
 20
-419.5832547765956
 10
-3.877796135403853
 20
-420.6889426618613
 10
-3.384135545061212
 20
-422.0452732082248
 10
-1.962688540810516
 20
-422.2959158693221
  0
CIRCLE
  5
264AC
330
18
100
AcDbEntity
  8
細線
100
AcDbCircle
 10
-2.456349131153614
 20
-420.9395853229593
 30
0.0
 40
2.74999999744107
  0
CIRCLE
  5
264AD
330
18
100
AcDbEntity
  8
0
100
AcDbCircle
 10
-2.456349131154521
 20
-420.9395853229587
 30
0.0
 40
3.0
  0
CIRCLE
  5
264AE
330
18
100
AcDbEntity
  8
細線
100
AcDbCircle
 10
-5.297897986424118
 20
-411.8991754353436
 30
0.0
 40
1.124999999999942
  0
LINE
  5
264AF
330
18
100
AcDbEntity
  8
中心線
100
AcDbLine
 10
-9.059853602952673
 20
-382.3309453897621
 30
0.0
 11
-19.05985360295267
 21
-382.3309453897621
 31
0.0
  0
CIRCLE
  5
264B0
330
18
100
AcDbEntity
  8
細線
100
AcDbCircle
 10
-15.36101024151401
 20
-390.3187615624418
 30
0.0
 40
1.499999999999943
  0
CIRCLE
  5
264B1
330
18
100
AcDbEntity
  8
細線
100
AcDbCircle
 10
-15.36101024151401
 20
-390.3187615624418
 30
0.0
 40
1.124999999999942
  0
ARC
  5
264B2
330
18
100
AcDbEntity
  8
0
100
AcDbCircle
 10
29.9401463970471
 20
-382.3309453897621
 30
0.0
 40
48.0
100
AcDbArc
 50
172.0969278549179
 51
197.9030721450921
  0
CIRCLE
  5
264B3
330
18
100
AcDbEntity
  8
細線
100
AcDbCircle
 10
-17.42036169056233
 20
-399.568760613377
 30
0.0
 40
2.74999999744107
  0
LWPOLYLINE
  5
264B4
330
18
100
AcDbEntity
  8
細線
100
AcDbPolyline
 90
        6
 70
     1
 43
0.0
 10
-16.31467380529636
 20
-400.4965470272844
 10
-16.06403114419879
 20
-399.0751000230336
 10
-17.16971902946431
 20
-398.1473136091256
 10
-18.52604957582741
 20
-398.6409741994683
 10
-18.77669223692588
 20
-400.0624212037194
 10
-17.67100435165946
 20
-400.9902076176273
  0
CIRCLE
  5
264B5
330
18
100
AcDbEntity
  8
0
100
AcDbCircle
 10
-17.42036169056233
 20
-399.568760613376
 30
0.0
 40
3.0
  0
LWPOLYLINE
  5
264B6
330
18
100
AcDbEntity
  8
細線
100
AcDbPolyline
 90
        6
 70
     1
 43
0.0
 10
-19.20050376442519
 20
-374.935407781713
 10
-18.27271735051714
 20
-373.8297198964471
 10
-18.76637794085979
 20
-372.4733893500843
 10
-20.18782494511139
 20
-372.2227466889865
 10
-21.11561135901945
 20
-373.3284345742524
 10
-20.6219507686759
 20
-374.6847651206154
  0
SOLID
  5
264B7
330
18
100
AcDbEntity
  8
0
  6
BYBLOCK
 62
     0
100
AcDbTrace
 10
-19.55985360295267
 20
-380.0215443097621
 30
0.0
 11
-23.55985360295267
 21
-382.3309453897621
 31
0.0
 12
-19.55985360295267
 22
-384.6403464697621
 32
0.0
 13
-19.55985360295267
 23
-384.6403464697621
 33
0.0
  0
CIRCLE
  5
264B8
330
18
100
AcDbEntity
  8
細線
100
AcDbCircle
 10
-13.05985360295276
 20
-382.3309453897623
 30
0.0
 40
2.5
  0
CIRCLE
  5
264B9
330
18
100
AcDbEntity
  8
0
100
AcDbCircle
 10
-13.05985360295276
 20
-382.3309453897623
 30
0.0
 40
1.875
  0
CIRCLE
  5
264BA
330
18
100
AcDbEntity
  8
細線
100
AcDbCircle
 10
21.18827824263473
 20
-431.9652561415773
 30
0.0
 40
2.74999999744107
  0
LWPOLYLINE
  5
264BB
330
18
100
AcDbEntity
  8
細線
100
AcDbPolyline
 90
        6
 70
     1
 43
0.0
 10
22.54460878899827
 20
-431.4715955512341
 10
21.43892090373231
 20
-430.5438091373264
 10
20.08259035736875
 20
-431.0374697276692
 10
19.83194769627117
 20
-432.4589167319204
 10
20.93763558153716
 20
-433.3867031458283
 10
22.29396612790026
 20
-432.8930425554854
  0
CIRCLE
  5
264BD
330
18
100
AcDbEntity
  8
0
100
AcDbCircle
 10
21.18827824263382
 20
-431.9652561415775
 30
0.0
 40
3.0
  0
CIRCLE
  5
264BE
330
18
100
AcDbEntity
  8
細線
100
AcDbCircle
 10
14.20721980406699
 20
-425.556805945914
 30
0.0
 40
1.499999999999943
  0
CIRCLE
  5
264BF
330
18
100
AcDbEntity
  8
細線
100
AcDbCircle
 10
8.440146397047215
 20
-419.5700377524931
 30
0.0
 40
2.5
  0
LINE
  5
264C0
330
18
100
AcDbEntity
  8
中心線
100
AcDbLine
 10
10.94014639704721
 20
-415.239910733571
 30
0.0
 11
5.940146397047213
 21
-423.9001647714156
 31
0.0
  0
CIRCLE
  5
264C1
330
18
100
AcDbEntity
  8
0
100
AcDbCircle
 10
8.440146397047215
 20
-419.5700377524931
 30
0.0
 40
1.875
  0
CIRCLE
  5
264C2
330
18
100
AcDbEntity
  8
細線
100
AcDbCircle
 10
14.20721980406699
 20
-425.556805945914
 30
0.0
 40
1.124999999999942
  0
LINE
  5
264C5
330
18
100
AcDbEntity
  8
0
100
AcDbLine
 10
-41.55985360295267
 20
-295.8309453897621
 30
0.0
 11
10.08284295473663
 21
-295.8309453897621
 31
0.0
  0
ARC
  5
264C6
330
18
100
AcDbEntity
  8
中心線
 48
0.8
100
AcDbCircle
 10
29.94014639704733
 20
-382.3309453897623
 30
0.0
 40
102.4999999999999
100
AcDbArc
 50
125.029680305368
 51
144.9703196946319
  0
ARC
  5
264C8
330
18
100
AcDbEntity
  8
0
100
AcDbCircle
 10
-62.05985360295223
 20
-334.3309453897623
 30
0.0
 40
10.50000000000042
100
AcDbArc
 50
154.7912347032448
 51
205.208765296755
  0
LINE
  5
264C9
330
18
100
AcDbEntity
  8
0
100
AcDbLine
 10
-60.55985360295267
 20
-344.8309453897623
 30
0.0
 11
-60.55985360295267
 21
-323.8309453897623
 31
0.0
  0
LINE
  5
264CA
330
18
100
AcDbEntity
  8
0
100
AcDbLine
 10
-57.55985360295312
 20
-323.8309453897623
 30
0.0
 11
-57.55985360295312
 21
-344.8309453897623
 31
0.0
  0
LINE
  5
264CB
330
18
100
AcDbEntity
  8
0
100
AcDbLine
 10
-76.05985360295267
 20
-339.5595168183346
 30
0.0
 11
-76.05985360295267
 21
-329.1023739611901
 31
0.0
  0
LINE
  5
264CC
330
18
100
AcDbEntity
  8
0
100
AcDbLine
 10
-65.55985360295267
 20
-344.8309453897623
 30
0.0
 11
-65.55985360295267
 21
-323.8309453897623
 31
0.0
  0
LINE
  5
264CD
330
18
100
AcDbEntity
  8
0
100
AcDbLine
 10
-72.55985360295245
 20
-343.6595168183332
 30
0.0
 11
-72.55985360295267
 21
-325.0023739611908
 31
0.0
  0
LINE
  5
264CE
330
18
100
AcDbEntity
  8
0
100
AcDbLine
 10
-62.55985360295267
 20
-324.8309453897622
 30
0.0
 11
-62.55985360295267
 21
-343.8309453897621
 31
0.0
  0
LINE
  5
264CF
330
18
100
AcDbEntity
  8
0
100
AcDbLine
 10
-56.55985360295267
 20
-310.8309453897621
 30
0.0
 11
-56.55985360295267
 21
-362.4736419474517
 31
0.0
  0
LINE
  5
264D0
330
18
100
AcDbEntity
  8
0
100
AcDbLine
 10
-65.55985360295267
 20
-338.8030813447619
 30
0.0
 11
-71.55985360295267
 21
-338.8030813447619
 31
0.0
  0
LINE
  5
264D1
330
18
100
AcDbEntity
  8
0
100
AcDbLine
 10
-65.55985360295267
 20
-340.3221187482145
 30
0.0
 11
-71.55985360295267
 21
-340.3221187482145
 31
0.0
  0
LINE
  5
264D2
330
18
100
AcDbEntity
  8
0
100
AcDbLine
 10
-65.55985360295267
 20
-344.8309453897623
 30
0.0
 11
-71.55985360295267
 21
-344.8309453897623
 31
0.0
  0
LINE
  5
264D3
330
18
100
AcDbEntity
  8
0
100
AcDbLine
 10
-71.55985360295222
 20
-344.8309453897623
 30
0.0
 11
-76.05985360295267
 21
-339.5595168183343
 31
0.0
  0
ARC
  5
264D4
330
18
100
AcDbEntity
  8
0
100
AcDbCircle
 10
-63.58605708538289
 20
-344.5298605763521
 30
0.0
 40
9.015903847971632
100
AcDbArc
 50
152.1795611441596
 51
174.4603666814934
  0
LINE
  5
264D5
330
18
100
AcDbEntity
  8
0
100
AcDbLine
 10
-71.55985360295267
 20
-340.3221187482145
 30
0.0
 11
-71.55985360295267
 21
-338.803081344762
 31
0.0
  0
LINE
  5
264D6
330
18
100
AcDbEntity
  8
0
100
AcDbLine
 10
-60.55985360295267
 20
-341.7309453897626
 30
0.0
 11
-62.55985360295267
 21
-341.7309453897626
 31
0.0
  0
LINE
  5
264D7
330
18
100
AcDbEntity
  8
0
100
AcDbLine
 10
-62.55985360295267
 20
-343.8309453897621
 30
0.0
 11
-65.55985360295267
 21
-343.8309453897621
 31
0.0
  0
LINE
  5
264D8
330
18
100
AcDbEntity
  8
0
100
AcDbLine
 10
-57.55985360295312
 20
-338.8030813447619
 30
0.0
 11
-60.55985360295267
 21
-338.8030813447619
 31
0.0
  0
LINE
  5
264D9
330
18
100
AcDbEntity
  8
0
100
AcDbLine
 10
-57.55985360295312
 20
-340.3221187482145
 30
0.0
 11
-60.55985360295267
 21
-340.3221187482145
 31
0.0
  0
LINE
  5
264DA
330
18
100
AcDbEntity
  8
0
100
AcDbLine
 10
-57.55985360295312
 20
-344.8309453897623
 30
0.0
 11
-60.55985360295267
 21
-344.8309453897623
 31
0.0
  0
LINE
  5
264DB
330
18
100
AcDbEntity
  8
0
100
AcDbLine
 10
-56.55985360295267
 20
-343.3309453897621
 30
0.0
 11
-57.55985360295312
 21
-343.3309453897621
 31
0.0
  0
LINE
  5
264DC
330
18
100
AcDbEntity
  8
0
100
AcDbLine
 10
-65.55985360295267
 20
-323.8309453897623
 30
0.0
 11
-71.55985360295244
 21
-323.8309453897623
 31
0.0
  0
LINE
  5
264DD
330
18
100
AcDbEntity
  8
0
100
AcDbLine
 10
-71.55985360295267
 20
-328.3397720313103
 30
0.0
 11
-65.55985360295267
 21
-328.3397720313103
 31
0.0
  0
LINE
  5
264DE
330
18
100
AcDbEntity
  8
0
100
AcDbLine
 10
-71.55985360295267
 20
-329.8588094347626
 30
0.0
 11
-65.55985360295267
 21
-329.8588094347626
 31
0.0
  0
LINE
  5
264DF
330
18
100
AcDbEntity
  8
0
100
AcDbLine
 10
-71.55985360295267
 20
-329.8588094347627
 30
0.0
 11
-71.55985360295267
 21
-328.3397720313103
 31
0.0
  0
ARC
  5
264E0
330
18
100
AcDbEntity
  8
0
100
AcDbCircle
 10
-63.58605708538289
 20
-324.1320302031724
 30
0.0
 40
9.015903847971632
100
AcDbArc
 50
185.5396333185065
 51
207.82043885584
  0
LINE
  5
264E1
330
18
100
AcDbEntity
  8
0
100
AcDbLine
 10
-71.55985360295244
 20
-323.8309453897623
 30
0.0
 11
-76.05985360295267
 21
-329.1023739611901
 31
0.0
  0
LINE
  5
264E3
330
18
100
AcDbEntity
  8
0
100
AcDbLine
 10
-60.55985360295267
 20
-326.9309453897625
 30
0.0
 11
-62.55985360295267
 21
-326.9309453897625
 31
0.0
  0
LINE
  5
264E4
330
18
100
AcDbEntity
  8
0
100
AcDbLine
 10
-62.55985360295267
 20
-324.8309453897622
 30
0.0
 11
-65.55985360295267
 21
-324.8309453897622
 31
0.0
  0
LINE
  5
264E6
330
18
100
AcDbEntity
  8
0
100
AcDbLine
 10
-57.55985360295312
 20
-323.8309453897623
 30
0.0
 11
-60.55985360295267
 21
-323.8309453897623
 31
0.0
  0
LINE
  5
264E7
330
18
100
AcDbEntity
  8
0
100
AcDbLine
 10
-60.55985360295267
 20
-328.3397720313103
 30
0.0
 11
-57.55985360295312
 21
-328.3397720313103
 31
0.0
  0
LINE
  5
264E8
330
18
100
AcDbEntity
  8
0
100
AcDbLine
 10
-60.55985360295267
 20
-329.8588094347627
 30
0.0
 11
-57.55985360295312
 21
-329.8588094347627
 31
0.0
  0
LINE
  5
264E9
330
18
100
AcDbEntity
  8
0
100
AcDbLine
 10
-56.55985360295267
 20
-325.3309453897621
 30
0.0
 11
-57.55985360295334
 21
-325.3309453897621
 31
0.0
  0
LINE
  5
264EA
330
18
100
AcDbEntity
  8
中心線
 48
0.8
100
AcDbLine
 10
-33.06996801201262
 20
-319.320830980699
 30
0.0
 11
-52.0066293371317
 21
-300.3841696555801
 31
0.0
  0
CIRCLE
  5
264EC
330
18
100
AcDbEntity
  8
0
100
AcDbCircle
 10
-42.53829867457375
 20
-309.8525003181411
 30
0.0
 40
5.5
  0
ARC
  5
264FF
330
18
100
AcDbEntity
  8
0
100
AcDbCircle
 10
29.9401463970471
 20
-382.3309453897621
 30
0.0
 40
48.0
100
AcDbArc
 50
112.0969278549049
 51
137.903072145082
  0
LWPOLYLINE
  5
26500
330
18
100
AcDbEntity
  8
細線
100
AcDbPolyline
 90
        6
 70
     1
 43
0.0
 10
-8.919136197247439
 20
-351.3558968658124
 10
-7.562805650883888
 20
-350.8622362754695
 10
-7.312162989786314
 20
-349.4407892712183
 10
-8.417850875051838
 20
-348.5130028573105
 10
-9.774181421415391
 20
-349.0066634476531
 10
-10.0248240825125
 20
-350.4281104519042
  0
CIRCLE
  5
26501
330
18
100
AcDbEntity
  8
細線
100
AcDbCircle
 10
-8.668493536150322
 20
-349.9344498615617
 30
0.0
 40
2.74999999744107
  0
CIRCLE
  5
26502
330
18
100
AcDbEntity
  8
0
100
AcDbCircle
 10
-8.668493536149412
 20
-349.9344498615606
 30
0.0
 40
3.0
  0
CIRCLE
  5
26503
330
18
100
AcDbEntity
  8
細線
100
AcDbCircle
 10
-13.28571415910426
 20
-366.598018796782
 30
0.0
 40
1.499999999999943
  0
CIRCLE
  5
26504
330
18
100
AcDbEntity
  8
細線
100
AcDbCircle
 10
-13.28571415910426
 20
-366.598018796782
 30
0.0
 40
1.124999999999942
  0
CIRCLE
  5
26505
330
18
100
AcDbEntity
  8
細線
100
AcDbCircle
 10
0.3719163514662114
 20
-347.0929010062896
 30
0.0
 40
1.499999999999943
  0
CIRCLE
  5
26506
330
18
100
AcDbEntity
  8
細線
100
AcDbCircle
 10
0.3719163514662114
 20
-347.0929010062896
 30
0.0
 40
1.124999999999942
  0
CIRCLE
  5
26507
330
18
100
AcDbEntity
  8
細線
100
AcDbCircle
 10
12.70233117343434
 20
-334.9704373021523
 30
0.0
 40
2.74999999744107
  0
LWPOLYLINE
  5
26508
330
18
100
AcDbEntity
  8
細線
100
AcDbPolyline
 90
        6
 70
     1
 43
0.0
 10
14.12377927303952
 20
-335.2210737511883
 10
13.19599769125682
 20
-336.3267656910893
 10
11.77454959165253
 20
-336.0761292420533
 10
11.28088307382915
 20
-334.7198008531159
 10
12.20866465561186
 20
-333.6141089132148
 10
13.63011275521659
 20
-333.8647453622511
  0
CIRCLE
  5
26509
330
18
100
AcDbEntity
  8
0
100
AcDbCircle
 10
12.70233117343343
 20
-334.9704373021523
 30
0.0
 40
3.0
  0
CIRCLE
  5
2650A
330
18
100
AcDbEntity
  8
0
100
AcDbCircle
 10
8.440146397047326
 20
-345.0918530270314
 30
0.0
 40
1.875
  0
CIRCLE
  5
2650B
330
18
100
AcDbEntity
  8
細線
100
AcDbCircle
 10
8.440146397047326
 20
-345.0918530270314
 30
0.0
 40
2.5
  0
LINE
  5
2650C
330
18
100
AcDbEntity
  8
中心線
100
AcDbLine
 10
10.94014639704733
 20
-349.4219800459538
 30
0.0
 11
5.940146397047326
 21
-340.7617260081093
 31
0.0
  0
CIRCLE
  5
2650D
330
18
100
AcDbEntity
  8
細線
100
AcDbCircle
 10
21.95233022436798
 20
-337.0297887512005
 30
0.0
 40
1.499999999999943
  0
CIRCLE
  5
2650E
330
18
100
AcDbEntity
  8
細線
100
AcDbCircle
 10
21.95233022436798
 20
-337.0297887512005
 30
0.0
 40
1.124999999999942
  0
ARC
  5
26528
330
18
100
AcDbEntity
  8
0
100
AcDbCircle
 10
289.2835601819999
 20
-382.3309453897618
 30
0.0
 40
88.25000000000022
100
AcDbArc
 50
78.57070101851744
 51
101.4292989814824
  0
LINE
  5
2652A
330
18
100
AcDbEntity
  8
0
100
AcDbLine
 10
217.7835601820002
 20
-295.8309453897621
 30
0.0
 11
289.2835601820002
 21
-295.8309453897621
 31
0.0
  0
ARC
  5
2652B
330
18
100
AcDbEntity
  8
0
100
AcDbCircle
 10
289.2835601820003
 20
-382.3309453897618
 30
0.0
 40
88.25000000000022
100
AcDbArc
 50
258.5707010185174
 51
281.4292989814825
  0
LINE
  5
2652C
330
18
100
AcDbEntity
  8
中心線
100
AcDbLine
 10
384.2835601820002
 20
-382.3309453897623
 30
0.0
 11
194.2835601820002
 21
-382.3309453897623
 31
0.0
  0
LINE
  5
2652D
330
18
100
AcDbEntity
  8
0
100
AcDbLine
 10
217.7835601820002
 20
-468.8309453897621
 30
0.0
 11
289.2835601820002
 21
-468.8309453897621
 31
0.0
  0
CIRCLE
  5
2652F
330
18
100
AcDbEntity
  8
破線
100
AcDbCircle
 10
289.2835601820002
 20
-382.3309453897623
 30
0.0
 40
88.25000000000018
  0
CIRCLE
  5
26530
330
18
100
AcDbEntity
  8
0
100
AcDbCircle
 10
289.2835601820002
 20
-382.3309453897623
 30
0.0
 40
17.5
  0
LINE
  5
2653B
330
18
100
AcDbEntity
  8
0
100
AcDbLine
 10
116.4401463970477
 20
-646.3541992572734
 30
0.0
 11
47.44015110352541
 21
-646.3541992572729
 31
0.0
  0
LINE
  5
2653C
330
18
100
AcDbEntity
  8
0
100
AcDbLine
 10
47.42764192956985
 20
-646.3541992572677
 30
0.0
 11
47.42764192956985
 21
-657.7541992572712
 31
0.0
  0
LINE
  5
2653D
330
18
100
AcDbEntity
  8
破線
100
AcDbLine
 10
47.44015110352528
 20
-621.8541992572734
 30
0.0
 11
47.44015110352552
 21
-664.8541992572734
 31
0.0
  0
LINE
  5
26540
330
18
100
AcDbEntity
  8
0
100
AcDbLine
 10
77.44590637781969
 20
-621.8541992572734
 30
0.0
 11
77.94590637781969
 21
-622.3541992572734
 31
0.0
  0
LINE
  5
26541
330
18
100
AcDbEntity
  8
0
100
AcDbLine
 10
77.94590637781969
 20
-622.3541992572734
 30
0.0
 11
77.94590637781969
 21
-624.8541992572734
 31
0.0
  0
LINE
  5
26543
330
18
100
AcDbEntity
  8
0
100
AcDbLine
 10
83.94014639704733
 20
-624.8541992572734
 30
0.0
 11
83.94014639704733
 21
-626.1541992572703
 31
0.0
  0
LINE
  5
26544
330
18
100
AcDbEntity
  8
0
100
AcDbLine
 10
116.4401463970477
 20
-666.3541992572734
 30
0.0
 11
116.4401463970477
 21
-646.3541992572734
 31
0.0
  0
LINE
  5
26545
330
18
100
AcDbEntity
  8
0
100
AcDbLine
 10
115.44014639705
 20
-666.3541992572734
 30
0.0
 11
115.44014639705
 21
-647.3541992572734
 31
0.0
  0
LINE
  5
26546
330
18
100
AcDbEntity
  8
中心線
100
AcDbLine
 10
102.4185914686688
 20
-644.8541992572734
 30
0.0
 11
102.4185914686688
 21
-667.8541992572734
 31
0.0
  0
LINE
  5
26547
330
18
100
AcDbEntity
  8
0
100
AcDbLine
 10
118.1901463970467
 20
-645.754199257273
 30
0.0
 11
118.1901463970465
 21
-657.2541992572721
 31
0.0
  0
LINE
  5
26549
330
18
100
AcDbEntity
  8
0
100
AcDbLine
 10
117.6901463970471
 20
-657.754199257273
 30
0.0
 11
118.1901463970472
 21
-657.2541992572721
 31
0.0
  0
LINE
  5
2654A
330
18
100
AcDbEntity
  8
0
100
AcDbLine
 10
117.6901463970464
 20
-657.754199257273
 30
0.0
 11
118.1901463970465
 21
-657.2541992572721
 31
0.0
  0
LINE
  5
2654B
330
18
100
AcDbEntity
  8
0
100
AcDbLine
 10
116.440146397048
 20
-657.754199257273
 30
0.0
 11
117.6901463970471
 21
-657.754199257273
 31
0.0
  0
LINE
  5
2654C
330
18
100
AcDbEntity
  8
0
100
AcDbLine
 10
116.4401463970472
 20
-657.754199257273
 30
0.0
 11
116.4401463970477
 21
-666.3541992572734
 31
0.0
  0
LINE
  5
2654D
330
18
100
AcDbEntity
  8
0
100
AcDbLine
 10
118.6901463970477
 20
-627.5541992572737
 30
0.0
 11
118.6901463970477
 21
-645.754199257273
 31
0.0
  0
ARC
  5
2654E
330
18
100
AcDbEntity
  8
0
100
AcDbCircle
 10
114.44014639705
 20
-647.3541992572734
 30
0.0
 40
1.0
100
AcDbArc
 50
0.0
 51
90.0
  0
LINE
  5
2654F
330
18
100
AcDbEntity
  8
0
100
AcDbLine
 10
118.1901463970467
 20
-645.754199257273
 30
0.0
 11
118.6901463970472
 21
-645.754199257273
 31
0.0
  0
ARC
  5
26565
330
18
100
AcDbEntity
  8
0
100
AcDbCircle
 10
29.94014639704733
 20
-382.3309453897621
 30
0.0
 40
48.00017979286787
100
AcDbArc
 50
352.097203197534
 51
17.90279680248368
  0
LINE
  5
26566
330
18
100
AcDbEntity
  8
中心線
 48
0.8
100
AcDbLine
 10
92.95026080610726
 20
-445.3410597988255
 30
0.0
 11
111.8869221312261
 21
-464.2777211239444
 31
0.0
  0
ARC
  5
26567
330
18
100
AcDbEntity
  8
中心線
 48
0.8
100
AcDbCircle
 10
29.94014639704733
 20
-382.3309453897623
 30
0.0
 40
102.4999999999999
100
AcDbArc
 50
305.0296803053679
 51
324.9703196946319
  0
LINE
  5
2656A
330
18
100
AcDbEntity
  8
0
100
AcDbLine
 10
101.4401463970469
 20
-468.8309453897625
 30
0.0
 11
49.7974498393578
 21
-468.8309453897621
 31
0.0
  0
ARC
  5
2656C
330
18
100
AcDbEntity
  8
0
100
AcDbCircle
 10
29.94014639704733
 20
-382.3309453897621
 30
0.0
 40
48.00017979286787
100
AcDbArc
 50
292.0972031975125
 51
317.9027968024859
  0
CIRCLE
  5
26575
330
18
100
AcDbEntity
  8
細線
100
AcDbCircle
 10
59.50837644262957
 20
-417.5689897732349
 30
0.0
 40
1.499999999999943
  0
CIRCLE
  5
26576
330
18
100
AcDbEntity
  8
細線
100
AcDbCircle
 10
59.50837644262957
 20
-417.5689897732349
 30
0.0
 40
1.124999999999942
  0
ARC
  5
26577
330
18
100
AcDbEntity
  8
0
100
AcDbCircle
 10
29.94014639704733
 20
-382.3309453897621
 30
0.0
 40
48.00017979286787
100
AcDbArc
 50
322.0972031975051
 51
347.9027968024793
  0
CIRCLE
  5
26578
330
18
100
AcDbEntity
  8
細線
100
AcDbCircle
 10
68.54878633024475
 20
-414.7274409179626
 30
0.0
 40
2.74999999744107
  0
LWPOLYLINE
  5
26579
330
18
100
AcDbEntity
  8
細線
100
AcDbPolyline
 90
        6
 70
     1
 43
0.0
 10
68.79942899134187
 20
-413.3059939137116
 10
67.44309844497831
 20
-413.7996545040546
 10
67.19245578388075
 20
-415.2211015083055
 10
68.29814366914627
 20
-416.1488879222136
 10
69.65447421551028
 20
-415.6552273318706
 10
69.90511687660694
 20
-414.2337803276197
  0
CIRCLE
  5
2657A
330
18
100
AcDbEntity
  8
0
100
AcDbCircle
 10
68.54878633024384
 20
-414.7274409179634
 30
0.0
 40
3.0
  0
CIRCLE
  5
2658C
330
18
100
AcDbEntity
  8
細線
100
AcDbCircle
 10
79.57445714886183
 20
-391.0828135441743
 30
0.0
 40
2.74999999744107
  0
LWPOLYLINE
  5
2658D
330
18
100
AcDbEntity
  8
細線
100
AcDbPolyline
 90
        6
 70
     1
 43
0.0
 10
79.08079655851962
 20
-389.7264829978105
 10
78.1530101446116
 20
-390.8321708830766
 10
78.64667073495422
 20
-392.18850142944
 10
80.06811773920492
 20
-392.4391440905376
 10
80.99590415311345
 20
-391.3334562052718
 10
80.50224356277077
 20
-389.9771256589088
  0
CIRCLE
  5
2658E
330
18
100
AcDbEntity
  8
0
100
AcDbCircle
 10
79.57445714886183
 20
-391.0828135441753
 30
0.0
 40
3.0
  0
CIRCLE
  5
2658F
330
18
100
AcDbEntity
  8
細線
100
AcDbCircle
 10
73.16600695319914
 20
-398.0638719827428
 30
0.0
 40
1.499999999999943
  0
CIRCLE
  5
26590
330
18
100
AcDbEntity
  8
細線
100
AcDbCircle
 10
73.16600695319914
 20
-398.0638719827428
 30
0.0
 40
1.124999999999942
  0
CIRCLE
  5
26591
330
18
100
AcDbEntity
  8
細線
100
AcDbCircle
 10
72.9401463970472
 20
-382.3309453897623
 30
0.0
 40
2.5
  0
CIRCLE
  5
26592
330
18
100
AcDbEntity
  8
0
100
AcDbCircle
 10
72.9401463970472
 20
-382.3309453897623
 30
0.0
 40
1.875
  0
CIRCLE
  5
26593
330
18
100
AcDbEntity
  8
細線
100
AcDbCircle
 10
75.24130303560865
 20
-374.3431292170821
 30
0.0
 40
1.124999999999942
  0
CIRCLE
  5
26594
330
18
100
AcDbEntity
  8
細線
100
AcDbCircle
 10
75.24130303560865
 20
-374.3431292170821
 30
0.0
 40
1.499999999999943
  0
CIRCLE
  5
26596
330
18
100
AcDbEntity
  8
0
100
AcDbCircle
 10
102.4185914686684
 20
-454.8093904613834
 30
0.0
 40
5.5
  0
LINE
  5
26598
330
18
100
AcDbEntity
  8
0
100
AcDbLine
 10
116.440146397047
 20
-453.8309453897626
 30
0.0
 11
116.440146397047
 21
-402.1882488320739
 31
0.0
  0
LINE
  5
265AD
330
18
100
AcDbEntity
  8
中心線
 48
0.8
100
AcDbLine
 10
92.95026080611055
 20
-319.3208309807023
 30
0.0
 11
111.8869221312295
 21
-300.3841696555833
 31
0.0
  0
ARC
  5
265AF
330
18
100
AcDbEntity
  8
中心線
 48
0.8
100
AcDbCircle
 10
29.94014639704733
 20
-382.3309453897623
 30
0.0
 40
102.4999999999999
100
AcDbArc
 50
35.02968030536809
 51
54.9703196946319
  0
CIRCLE
  5
265B0
330
18
100
AcDbEntity
  8
細線
100
AcDbCircle
 10
65.17819078052082
 20
-352.7627153441808
 30
0.0
 40
1.499999999999943
  0
CIRCLE
  5
265B1
330
18
100
AcDbEntity
  8
細線
100
AcDbCircle
 10
65.17819078052082
 20
-352.7627153441808
 30
0.0
 40
1.124999999999942
  0
ARC
  5
265B2
330
18
100
AcDbEntity
  8
0
100
AcDbCircle
 10
29.9401463970471
 20
-382.3309453897621
 30
0.0
 40
48.0
100
AcDbArc
 50
22.09692785491696
 51
47.90307214509607
  0
LINE
  5
265B3
330
18
100
AcDbEntity
  8
0
100
AcDbLine
 10
101.4401463970471
 20
-295.8309453897621
 30
0.0
 11
49.79744983935802
 21
-295.8309453897621
 31
0.0
  0
CIRCLE
  5
265B4
330
18
100
AcDbEntity
  8
細線
100
AcDbCircle
 10
38.69201455146106
 20
-332.6966346379471
 30
0.0
 40
2.74999999744107
  0
CIRCLE
  5
265B5
330
18
100
AcDbEntity
  8
0
100
AcDbCircle
 10
38.69201455146015
 20
-332.696634637947
 30
0.0
 40
3.0
  0
ARC
  5
265B6
330
18
100
AcDbEntity
  8
0
100
AcDbCircle
 10
29.9401463970471
 20
-382.3309453897621
 30
0.0
 40
48.0
100
AcDbArc
 50
52.09692785491256
 51
77.90307214509923
  0
CIRCLE
  5
265B7
330
18
100
AcDbEntity
  8
0
100
AcDbCircle
 10
51.44014639704687
 20
-345.091853027031
 30
0.0
 40
1.875
  0
CIRCLE
  5
265B8
330
18
100
AcDbEntity
  8
細線
100
AcDbCircle
 10
51.44014639704687
 20
-345.091853027031
 30
0.0
 40
2.5
  0
LINE
  5
265B9
330
18
100
AcDbEntity
  8
中心線
100
AcDbLine
 10
49.44014639704722
 20
-348.5559546421683
 30
0.0
 11
54.44014639704722
 21
-339.895700604324
 31
0.0
  0
LWPOLYLINE
  5
265BA
330
18
100
AcDbEntity
  8
細線
100
AcDbPolyline
 90
        6
 70
     1
 43
0.0
 10
39.79770649136217
 20
-333.6244162197297
 10
38.44137810242512
 20
-334.1180827375519
 10
37.33568616252444
 20
-333.1903011557701
 10
37.58632261156037
 20
-331.7688530561647
 10
38.94265100049745
 20
-331.2751865383421
 10
40.04834294039811
 20
-332.2029681201245
  0
CIRCLE
  5
265BB
330
18
100
AcDbEntity
  8
細線
100
AcDbCircle
 10
45.67307299002698
 20
-339.1050848336096
 30
0.0
 40
1.499999999999943
  0
CIRCLE
  5
265BC
330
18
100
AcDbEntity
  8
細線
100
AcDbCircle
 10
45.67307299002698
 20
-339.1050848336096
 30
0.0
 40
1.124999999999942
  0
CIRCLE
  5
265BD
330
18
100
AcDbEntity
  8
細線
100
AcDbCircle
 10
62.33664192524987
 20
-343.7223054565667
 30
0.0
 40
2.74999999744107
  0
LWPOLYLINE
  5
265BE
330
18
100
AcDbEntity
  8
細線
100
AcDbPolyline
 90
        6
 70
     1
 43
0.0
 10
62.83030844307234
 20
-345.0786338455035
 10
61.40886034346713
 20
-344.8279973964675
 10
60.91519382564513
 20
-343.4716690075303
 10
61.84297540742647
 20
-342.3659770676292
 10
63.26442350703167
 20
-342.6166135166653
 10
63.75809002485368
 20
-343.9729419056027
  0
CIRCLE
  5
265BF
330
18
100
AcDbEntity
  8
0
100
AcDbCircle
 10
62.33664192524895
 20
-343.7223054565657
 30
0.0
 40
3.0
  0
LWPOLYLINE
  5
265C0
330
18
100
AcDbEntity
  8
細線
100
AcDbPolyline
 90
        6
 70
     1
 43
0.0
 10
76.19496659939101
 20
-364.1653437522396
 10
75.94432393829345
 20
-365.5867907564906
 10
77.05001182355897
 20
-366.5145771703986
 10
78.40634236992207
 20
-366.0209165800558
 10
78.65698503102056
 20
-364.5994695758048
 10
77.55129714575414
 20
-363.6716831618969
  0
CIRCLE
  5
265C1
330
18
100
AcDbEntity
  8
細線
100
AcDbCircle
 10
77.300654484657
 20
-365.0931301661473
 30
0.0
 40
2.74999999744107
  0
CIRCLE
  5
265C2
330
18
100
AcDbEntity
  8
0
100
AcDbCircle
 10
77.300654484657
 20
-365.0931301661482
 30
0.0
 40
3.0
  0
LINE
  5
265D5
330
18
100
AcDbEntity
  8
0
100
AcDbLine
 10
116.440146397047
 20
-310.8309453897621
 30
0.0
 11
116.440146397047
 21
-362.4736419474507
 31
0.0
  0
CIRCLE
  5
265D7
330
18
100
AcDbEntity
  8
0
100
AcDbCircle
 10
102.4185914686684
 20
-309.8525003181411
 30
0.0
 40
5.5
  0
ARC
  5
265DA
330
18
100
AcDbEntity
  8
0
100
AcDbCircle
 10
289.2835601820003
 20
-382.3309453897623
 30
0.0
 40
88.25000000000022
100
AcDbArc
 50
168.5707010185095
 51
191.4292989814902
  0
LINE
  5
265DC
330
18
100
AcDbEntity
  8
0
100
AcDbLine
 10
202.783560182
 20
-310.8309453897621
 30
0.0
 11
202.783560182
 21
-382.3309453897623
 31
0.0
  0
ARC
  5
265DD
330
18
100
AcDbEntity
  8
中心線
 48
0.8
100
AcDbCircle
 10
289.2835601820002
 20
-382.3309453897623
 30
0.0
 40
102.4999999999999
100
AcDbArc
 50
218.8482301570043
 51
231.151769843019
  0
LINE
  5
265DE
330
18
100
AcDbEntity
  8
中心線
 48
0.8
100
AcDbLine
 10
224.5832897034309
 20
-447.0312158683314
 30
0.0
 11
209.0269405173271
 21
-462.5875650544353
 31
0.0
  0
CIRCLE
  5
265DF
330
18
100
AcDbEntity
  8
0
100
AcDbCircle
 10
216.8051151103789
 20
-454.8093904613834
 30
0.0
 40
5.5
  0
LINE
  5
265E2
330
18
100
AcDbEntity
  8
0
100
AcDbLine
 10
187.7835601820003
 20
-419.8309453897626
 30
0.0
 11
183.2835601820002
 21
-425.1023739611905
 31
0.0
  0
LINE
  5
265E3
330
18
100
AcDbEntity
  8
0
100
AcDbLine
 10
187.7835601820003
 20
-440.8309453897626
 30
0.0
 11
183.2835601820002
 21
-435.5595168183348
 31
0.0
  0
LINE
  5
265E6
330
18
100
AcDbEntity
  8
0
100
AcDbLine
 10
183.2835601820002
 20
-425.1023739611903
 30
0.0
 11
183.2835601820002
 21
-435.5595168183348
 31
0.0
  0
LINE
  5
265EA
330
18
100
AcDbEntity
  8
0
100
AcDbLine
 10
202.783560182
 20
-453.8309453897623
 30
0.0
 11
202.783560182
 21
-382.3309453897623
 31
0.0
  0
LINE
  5
265EB
330
18
100
AcDbEntity
  8
0
100
AcDbLine
 10
201.7835601819995
 20
-424.3397720313103
 30
0.0
 11
198.7835601820002
 21
-424.3397720313103
 31
0.0
  0
LINE
  5
265EC
330
18
100
AcDbEntity
  8
0
100
AcDbLine
 10
201.7835601819995
 20
-425.8588094347626
 30
0.0
 11
198.7835601820002
 21
-425.8588094347626
 31
0.0
  0
LINE
  5
265ED
330
18
100
AcDbEntity
  8
0
100
AcDbLine
 10
201.7835601819995
 20
-419.8309453897626
 30
0.0
 11
198.7835601820002
 21
-419.8309453897626
 31
0.0
  0
LINE
  5
265EE
330
18
100
AcDbEntity
  8
0
100
AcDbLine
 10
198.7835601820002
 20
-436.3221187482146
 30
0.0
 11
201.7835601819995
 21
-436.3221187482146
 31
0.0
  0
LINE
  5
265EF
330
18
100
AcDbEntity
  8
0
100
AcDbLine
 10
198.7835601820002
 20
-434.8030813447619
 30
0.0
 11
201.7835601819995
 21
-434.8030813447619
 31
0.0
  0
LINE
  5
265F0
330
18
100
AcDbEntity
  8
0
100
AcDbLine
 10
201.7835601819995
 20
-440.8309453897626
 30
0.0
 11
198.7835601820002
 21
-440.8309453897626
 31
0.0
  0
LINE
  5
265F1
330
18
100
AcDbEntity
  8
0
100
AcDbLine
 10
198.7835601820002
 20
-419.8309453897626
 30
0.0
 11
198.7835601820002
 21
-440.8309453897626
 31
0.0
  0
ARC
  5
265F2
330
18
100
AcDbEntity
  8
0
100
AcDbCircle
 10
197.2835601820005
 20
-430.3309453897626
 30
0.0
 40
10.50000000000042
100
AcDbArc
 50
154.7912347032448
 51
205.208765296755
  0
LINE
  5
265F3
330
18
100
AcDbEntity
  8
0
100
AcDbLine
 10
193.7835601819998
 20
-419.8309453897626
 30
0.0
 11
193.7835601819998
 21
-440.8309453897626
 31
0.0
  0
LINE
  5
265F4
330
18
100
AcDbEntity
  8
0
100
AcDbLine
 10
186.7835601820003
 20
-421.0023739611915
 30
0.0
 11
186.7835601820002
 21
-439.6595168183341
 31
0.0
  0
LINE
  5
265F5
330
18
100
AcDbEntity
  8
0
100
AcDbLine
 10
196.7835601820002
 20
-439.8309453897626
 30
0.0
 11
196.7835601820002
 21
-420.8309453897626
 31
0.0
  0
LINE
  5
265F6
330
18
100
AcDbEntity
  8
0
100
AcDbLine
 10
187.783560182
 20
-436.3221187482146
 30
0.0
 11
193.7835601819998
 21
-436.3221187482146
 31
0.0
  0
LINE
  5
265F7
330
18
100
AcDbEntity
  8
0
100
AcDbLine
 10
187.783560182
 20
-434.8030813447619
 30
0.0
 11
193.7835601819998
 21
-434.8030813447619
 31
0.0
  0
LINE
  5
265F8
330
18
100
AcDbEntity
  8
0
100
AcDbLine
 10
193.7835601819998
 20
-440.8309453897626
 30
0.0
 11
187.7835601820003
 21
-440.8309453897626
 31
0.0
  0
LINE
  5
265F9
330
18
100
AcDbEntity
  8
0
100
AcDbLine
 10
187.783560182
 20
-434.8030813447619
 30
0.0
 11
187.783560182
 21
-436.3221187482146
 31
0.0
  0
ARC
  5
265FA
330
18
100
AcDbEntity
  8
0
100
AcDbCircle
 10
195.7573566995699
 20
-440.5298605763523
 30
0.0
 40
9.015903847971632
100
AcDbArc
 50
152.1795611441596
 51
174.4603666814934
  0
LINE
  5
265FB
330
18
100
AcDbEntity
  8
0
100
AcDbLine
 10
198.7835601820002
 20
-437.7309453897622
 30
0.0
 11
196.7835601820002
 21
-437.7309453897622
 31
0.0
  0
LINE
  5
265FC
330
18
100
AcDbEntity
  8
0
100
AcDbLine
 10
196.7835601820002
 20
-439.8309453897626
 30
0.0
 11
193.7835601819998
 21
-439.8309453897626
 31
0.0
  0
LINE
  5
265FD
330
18
100
AcDbEntity
  8
0
100
AcDbLine
 10
193.7835601819998
 20
-425.8588094347626
 30
0.0
 11
187.783560182
 21
-425.8588094347626
 31
0.0
  0
LINE
  5
265FE
330
18
100
AcDbEntity
  8
0
100
AcDbLine
 10
193.7835601819998
 20
-424.3397720313103
 30
0.0
 11
187.783560182
 21
-424.3397720313103
 31
0.0
  0
LINE
  5
265FF
330
18
100
AcDbEntity
  8
0
100
AcDbLine
 10
193.7835601819998
 20
-419.8309453897626
 30
0.0
 11
187.783560182
 21
-419.8309453897626
 31
0.0
  0
LINE
  5
26600
330
18
100
AcDbEntity
  8
0
100
AcDbLine
 10
187.783560182
 20
-424.3397720313103
 30
0.0
 11
187.783560182
 21
-425.8588094347626
 31
0.0
  0
ARC
  5
26601
330
18
100
AcDbEntity
  8
0
100
AcDbCircle
 10
195.7573566995699
 20
-420.1320302031728
 30
0.0
 40
9.015903847971632
100
AcDbArc
 50
185.5396333185065
 51
207.82043885584
  0
LINE
  5
26602
330
18
100
AcDbEntity
  8
0
100
AcDbLine
 10
198.7835601820002
 20
-422.9309453897622
 30
0.0
 11
196.7835601820002
 21
-422.9309453897622
 31
0.0
  0
LINE
  5
26603
330
18
100
AcDbEntity
  8
0
100
AcDbLine
 10
196.7835601820002
 20
-420.8309453897626
 30
0.0
 11
193.7835601819998
 21
-420.8309453897626
 31
0.0
  0
LINE
  5
26604
330
18
100
AcDbEntity
  8
0
100
AcDbLine
 10
201.7835601819995
 20
-440.8309453897626
 30
0.0
 11
201.7835601819995
 21
-419.8309453897626
 31
0.0
  0
LINE
  5
26606
330
18
100
AcDbEntity
  8
0
100
AcDbLine
 10
202.783560182
 20
-439.3309453897626
 30
0.0
 11
201.7835601819995
 21
-439.3309453897626
 31
0.0
  0
CIRCLE
  5
26607
330
18
100
AcDbEntity
  8
0
100
AcDbCircle
 10
210.7537999185411
 20
-414.8590371407943
 30
0.0
 40
4.0
  0
CIRCLE
  5
26608
330
18
100
AcDbEntity
  8
DIMENSION
  6
CONTINUOUS
100
AcDbCircle
 10
210.7537999185411
 20
-414.8590371407943
 30
0.0
 40
3.5
  0
LINE
  5
26609
330
18
100
AcDbEntity
  8
0
100
AcDbLine
 10
202.783560182
 20
-421.3309453897626
 30
0.0
 11
201.7835601819995
 21
-421.3309453897626
 31
0.0
  0
LWPOLYLINE
  5
2660A
330
18
100
AcDbEntity
  8
DIMENSION
  6
CONTINUOUS
100
AcDbPolyline
 90
        6
 70
     1
 43
0.0
 10
210.5277219221064
 20
-416.5762700119989
 10
209.153593629647
 20
-415.5218642882486
 10
209.3796716260803
 20
-413.8046314170447
 10
210.9798779149741
 20
-413.14180426959
 10
212.3540062074338
 20
-414.1962099933403
 10
212.1279282110008
 20
-415.9134428645443
  0
CIRCLE
  5
2660D
330
18
100
AcDbEntity
  8
DIMENSION
  6
CONTINUOUS
100
AcDbCircle
 10
256.7554684309679
 20
-460.8607056532211
 30
0.0
 40
3.5
  0
CIRCLE
  5
2660E
330
18
100
AcDbEntity
  8
0
100
AcDbCircle
 10
256.7554684309679
 20
-460.8607056532211
 30
0.0
 40
4.0
  0
LWPOLYLINE
  5
2660F
330
18
100
AcDbEntity
  8
DIMENSION
  6
CONTINUOUS
100
AcDbPolyline
 90
        6
 70
     1
 43
0.0
 10
257.8098741547169
 20
-462.2348339456826
 10
256.0926412835125
 20
-462.4609119421148
 10
255.0382355597625
 20
-461.086783649655
 10
255.7010627072171
 20
-459.4865773607606
 10
257.4182955784213
 20
-459.2604993643282
 10
258.4727013021715
 20
-460.6346276567883
  0
CIRCLE
  5
26617
330
18
100
AcDbEntity
  8
0
100
AcDbCircle
 10
216.8051151103789
 20
-309.8525003181411
 30
0.0
 40
5.5
  0
ARC
  5
26618
330
18
100
AcDbEntity
  8
中心線
 48
0.8
100
AcDbCircle
 10
289.2835601820002
 20
-382.3309453897623
 30
0.0
 40
102.4999999999999
100
AcDbArc
 50
128.8482301569809
 51
141.1517698429953
  0
LINE
  5
26619
330
18
100
AcDbEntity
  8
中心線
 48
0.8
100
AcDbLine
 10
224.5832897034309
 20
-317.6306749111931
 30
0.0
 11
209.0269405173271
 21
-302.0743257250892
 31
0.0
  0
LINE
  5
2661A
330
18
100
AcDbEntity
  8
0
100
AcDbLine
 10
187.7835601820003
 20
-323.8309453897627
 30
0.0
 11
183.2835601820002
 21
-329.1023739611905
 31
0.0
  0
LINE
  5
2661B
330
18
100
AcDbEntity
  8
0
100
AcDbLine
 10
187.7835601820003
 20
-344.8309453897626
 30
0.0
 11
183.2835601820002
 21
-339.5595168183348
 31
0.0
  0
LINE
  5
2661C
330
18
100
AcDbEntity
  8
0
100
AcDbLine
 10
183.2835601820002
 20
-329.1023739611903
 30
0.0
 11
183.2835601820002
 21
-339.5595168183348
 31
0.0
  0
LINE
  5
2661D
330
18
100
AcDbEntity
  8
0
100
AcDbLine
 10
183.2835601820002
 20
-331.8309453930633
 30
0.0
 11
173.2270845296426
 21
-331.8309453930633
 31
0.0
  0
LINE
  5
2661E
330
18
100
AcDbEntity
  8
0
100
AcDbLine
 10
183.2835601820002
 20
-336.8309453864631
 30
0.0
 11
173.2270845296419
 21
-336.8309453864631
 31
0.0
  0
ARC
  5
2661F
330
18
100
AcDbEntity
  8
0
100
AcDbCircle
 10
174.6322070830364
 20
-335.5809453881123
 30
0.0
 40
1.880656636903949
100
AcDbArc
 50
138.3436407292579
 51
221.6563592707419
  0
ARC
  5
26620
330
18
100
AcDbEntity
  8
0
100
AcDbCircle
 10
171.8219619762489
 20
-335.5809453881123
 30
0.0
 40
1.880656636903949
100
AcDbArc
 50
318.343640729258
 51
41.656359270742
  0
ARC
  5
26621
330
18
100
AcDbEntity
  8
0
100
AcDbCircle
 10
174.6322070830358
 20
-333.0809453914125
 30
0.0
 40
1.880656636903949
100
AcDbArc
 50
138.3436407292579
 51
221.6563592707419
  0
LINE
  5
26622
330
18
100
AcDbEntity
  8
0
100
AcDbLine
 10
186.7835601820003
 20
-325.0023739611914
 30
0.0
 11
186.7835601820002
 21
-343.6595168183341
 31
0.0
  0
LINE
  5
26623
330
18
100
AcDbEntity
  8
0
100
AcDbLine
 10
196.7835601820002
 20
-324.8309453897626
 30
0.0
 11
196.7835601820002
 21
-343.8309453897626
 31
0.0
  0
LINE
  5
26624
330
18
100
AcDbEntity
  8
0
100
AcDbLine
 10
198.7835601820002
 20
-323.8309453897627
 30
0.0
 11
198.7835601820002
 21
-344.8309453897626
 31
0.0
  0
LINE
  5
26625
330
18
100
AcDbEntity
  8
0
100
AcDbLine
 10
193.7835601819998
 20
-323.8309453897627
 30
0.0
 11
193.7835601819998
 21
-344.8309453897626
 31
0.0
  0
ARC
  5
26626
330
18
100
AcDbEntity
  8
0
100
AcDbCircle
 10
197.2835601820005
 20
-334.3309453897627
 30
0.0
 40
10.50000000000042
100
AcDbArc
 50
154.7912347032448
 51
205.208765296755
  0
LINE
  5
26627
330
18
100
AcDbEntity
  8
0
100
AcDbLine
 10
201.7835601819995
 20
-344.8309453897626
 30
0.0
 11
201.7835601819995
 21
-323.8309453897627
 31
0.0
  0
LINE
  5
26628
330
18
100
AcDbEntity
  8
0
100
AcDbLine
 10
198.7835601820002
 20
-338.8030813447621
 30
0.0
 11
201.7835601819995
 21
-338.8030813447621
 31
0.0
  0
LINE
  5
26629
330
18
100
AcDbEntity
  8
0
100
AcDbLine
 10
198.7835601820002
 20
-340.3221187482146
 30
0.0
 11
201.7835601819995
 21
-340.3221187482146
 31
0.0
  0
LINE
  5
2662A
330
18
100
AcDbEntity
  8
0
100
AcDbLine
 10
201.7835601819995
 20
-344.8309453897626
 30
0.0
 11
198.7835601820002
 21
-344.8309453897626
 31
0.0
  0
LINE
  5
2662B
330
18
100
AcDbEntity
  8
0
100
AcDbLine
 10
187.783560182
 20
-338.8030813447623
 30
0.0
 11
193.7835601819998
 21
-338.8030813447623
 31
0.0
  0
LINE
  5
2662C
330
18
100
AcDbEntity
  8
0
100
AcDbLine
 10
187.783560182
 20
-340.3221187482146
 30
0.0
 11
193.7835601819998
 21
-340.3221187482146
 31
0.0
  0
LINE
  5
2662D
330
18
100
AcDbEntity
  8
0
100
AcDbLine
 10
193.7835601819998
 20
-344.8309453897626
 30
0.0
 11
187.7835601820003
 21
-344.8309453897626
 31
0.0
  0
ARC
  5
2662E
330
18
100
AcDbEntity
  8
0
100
AcDbCircle
 10
195.7573566995699
 20
-344.5298605763523
 30
0.0
 40
9.015903847971632
100
AcDbArc
 50
152.1795611441596
 51
174.4603666814934
  0
LINE
  5
2662F
330
18
100
AcDbEntity
  8
0
100
AcDbLine
 10
187.783560182
 20
-338.8030813447621
 30
0.0
 11
187.783560182
 21
-340.3221187482146
 31
0.0
  0
LINE
  5
26630
330
18
100
AcDbEntity
  8
0
100
AcDbLine
 10
198.7835601820002
 20
-341.7309453897633
 30
0.0
 11
196.7835601820002
 21
-341.7309453897633
 31
0.0
  0
LINE
  5
26631
330
18
100
AcDbEntity
  8
0
100
AcDbLine
 10
196.7835601820002
 20
-343.8309453897626
 30
0.0
 11
193.7835601819998
 21
-343.8309453897626
 31
0.0
  0
LWPOLYLINE
  5
26632
330
18
100
AcDbEntity
  8
DIMENSION
  6
CONTINUOUS
100
AcDbPolyline
 90
        6
 70
     1
 43
0.0
 10
209.3796716260808
 20
-350.857259362479
 10
209.1535936296481
 20
-349.1400264912748
 10
210.5277219221079
 20
-348.0856207675246
 10
212.1279282110021
 20
-348.7484479149793
 10
212.3540062074348
 20
-350.4656807861834
 10
210.9798779149751
 20
-351.5200865099336
  0
CIRCLE
  5
26633
330
18
100
AcDbEntity
  8
DIMENSION
  6
CONTINUOUS
100
AcDbCircle
 10
210.7537999185419
 20
-349.80285363873
 30
0.0
 40
3.5
  0
CIRCLE
  5
26634
330
18
100
AcDbEntity
  8
0
100
AcDbCircle
 10
210.7537999185419
 20
-349.80285363873
 30
0.0
 40
4.0
  0
LINE
  5
26635
330
18
100
AcDbEntity
  8
0
100
AcDbLine
 10
202.783560182
 20
-343.3309453897626
 30
0.0
 11
201.7835601819995
 21
-343.3309453897626
 31
0.0
  0
LINE
  5
26636
330
18
100
AcDbEntity
  8
0
100
AcDbLine
 10
201.7835601819995
 20
-323.8309453897627
 30
0.0
 11
198.7835601820002
 21
-323.8309453897627
 31
0.0
  0
LINE
  5
26637
330
18
100
AcDbEntity
  8
0
100
AcDbLine
 10
201.7835601819995
 20
-329.8588094347628
 30
0.0
 11
198.7835601820002
 21
-329.8588094347628
 31
0.0
  0
LINE
  5
26638
330
18
100
AcDbEntity
  8
0
100
AcDbLine
 10
201.7835601819995
 20
-328.3397720313103
 30
0.0
 11
198.7835601820002
 21
-328.3397720313103
 31
0.0
  0
LINE
  5
26639
330
18
100
AcDbEntity
  8
0
100
AcDbLine
 10
193.7835601819998
 20
-323.8309453897627
 30
0.0
 11
187.783560182
 21
-323.8309453897627
 31
0.0
  0
LINE
  5
2663A
330
18
100
AcDbEntity
  8
0
100
AcDbLine
 10
193.7835601819998
 20
-328.3397720313103
 30
0.0
 11
187.783560182
 21
-328.3397720313103
 31
0.0
  0
LINE
  5
2663B
330
18
100
AcDbEntity
  8
0
100
AcDbLine
 10
193.7835601819998
 20
-329.8588094347628
 30
0.0
 11
187.783560182
 21
-329.8588094347628
 31
0.0
  0
ARC
  5
2663C
330
18
100
AcDbEntity
  8
0
100
AcDbCircle
 10
195.7573566995699
 20
-324.1320302031728
 30
0.0
 40
9.015903847971632
100
AcDbArc
 50
185.5396333185065
 51
207.82043885584
  0
LINE
  5
2663D
330
18
100
AcDbEntity
  8
0
100
AcDbLine
 10
187.783560182
 20
-328.3397720313103
 30
0.0
 11
187.783560182
 21
-329.8588094347628
 31
0.0
  0
LINE
  5
2663E
330
18
100
AcDbEntity
  8
0
100
AcDbLine
 10
198.7835601820002
 20
-326.9309453897631
 30
0.0
 11
196.7835601820002
 21
-326.9309453897631
 31
0.0
  0
LINE
  5
2663F
330
18
100
AcDbEntity
  8
0
100
AcDbLine
 10
196.7835601820002
 20
-324.8309453897626
 30
0.0
 11
193.7835601819998
 21
-324.8309453897626
 31
0.0
  0
LINE
  5
26642
330
18
100
AcDbEntity
  8
0
100
AcDbLine
 10
202.783560182
 20
-325.3309453897626
 30
0.0
 11
201.7835601819995
 21
-325.3309453897626
 31
0.0
  0
ARC
  5
26643
330
18
100
AcDbEntity
  8
中心線
100
AcDbCircle
 10
289.2835601820002
 20
-382.3309453897623
 30
0.0
 40
85.0
100
AcDbArc
 50
116.4454352684892
 51
133.5545647315137
  0
LINE
  5
2664B
330
18
100
AcDbEntity
  8
DIMENSION
  6
BYBLOCK
 62
     0
100
AcDbLine
 10
242.2584928847425
 20
-315.1447247757751
 30
0.0
 11
238.8170342666362
 21
-310.2298125100412
 31
0.0
  0
LINE
  5
2664C
330
18
100
AcDbEntity
  8
DIMENSION
  6
BYBLOCK
 62
     0
100
AcDbLine
 10
242.9952197085563
 20
-310.9665393338548
 30
0.0
 11
238.0803074428224
 21
-314.4079979519613
 31
0.0
  0
HATCH
  5
2664D
330
18
100
AcDbEntity
  8
DIMENSION
  6
BYBLOCK
 62
     0
100
AcDbHatch
 10
0.0
 20
0.0
 30
0.0
210
0.0
220
0.0
230
1.0
  2
ANSI31
 70
     0
 71
     0
 91
        4
 92
        7
 72
     1
 73
     1
 93
        3
 10
243.3382954983418
 20
-313.7629177261146
 42
0.0088242164717323
 10
240.5377635756895
 20
-312.6872686429083
 42
0.0
 10
242.9952197085563
 20
-310.9665393338548
 42
-0.2493796996436278
 97
        0
 92
        7
 72
     1
 73
     1
 93
        3
 10
240.5377635756895
 20
-312.6872686429083
 42
-0.0088242164717323
 10
243.3382954983418
 20
-313.7629177261146
 42
-0.1494012440317256
 10
242.2584928847425
 20
-315.1447247757751
 42
0.0
 97
        0
 92
        7
 72
     1
 73
     1
 93
        3
 10
240.5377635756895
 20
-312.6872686429083
 42
0.0
 10
238.0803074428224
 20
-314.4079979519613
 42
-0.2400272838228544
 10
237.7010177555082
 20
-311.711116425432
 42
-0.0088242164717324
 97
        0
 92
        7
 72
     1
 73
     1
 93
        3
 10
237.7010177555082
 20
-311.711116425432
 42
-0.1584343322340092
 10
238.8170342666362
 20
-310.2298125100412
 42
0.0
 10
240.5377635756895
 20
-312.6872686429083
 42
0.0088242164717324
 97
        0
 75
     0
 76
     1
 52
235.0
 41
1.0
 77
     0
 78
     1
 53
80.00000000000007
 43
675.6484936277114
 44
-406.3431774015333
 45
0.123100969126526
 46
-0.0217060222083662
 79
     0
 47
0.0130930922504628
 98
        4
 10
243.1282440389849
 20
-312.744521672401
 10
242.1502721448925
 20
-313.9729506188982
 10
238.96062218903
 20
-312.8645515528826
 10
238.4206012647864
 20
-311.4998180074473
  0
CIRCLE
  5
2664E
330
18
100
AcDbEntity
  8
0
100
AcDbCircle
 10
240.5377635756895
 20
-312.6872686429083
 30
0.0
 40
3.0
  0
LINE
  5
2664F
330
18
100
AcDbEntity
  8
中心線
100
AcDbLine
 10
243.9710217102676
 20
-317.6179338909319
 30
0.0
 11
237.0881044740551
 21
-307.7881093594641
 31
0.0
  0
CIRCLE
  5
26665
330
18
100
AcDbEntity
  8
DIMENSION
  6
CONTINUOUS
100
AcDbCircle
 10
256.7554684309675
 20
-303.8011851263031
 30
0.0
 40
3.5
  0
CIRCLE
  5
26666
330
18
100
AcDbEntity
  8
0
100
AcDbCircle
 10
256.7554684309675
 20
-303.8011851263031
 30
0.0
 40
4.0
  0
LWPOLYLINE
  5
26667
330
18
100
AcDbEntity
  8
DIMENSION
  6
CONTINUOUS
100
AcDbPolyline
 90
        6
 70
     1
 43
0.0
 10
255.0382355597628
 20
-303.5751071298688
 10
256.0926412835133
 20
-302.2009788374095
 10
257.8098741547174
 20
-302.4270568338426
 10
258.4727013021721
 20
-304.0272631227363
 10
257.4182955784219
 20
-305.4013914151961
 10
255.7010627072175
 20
-305.175313418763
  0
LINE
  5
2666C
330
18
100
AcDbEntity
  8
中心線
100
AcDbLine
 10
289.2835601820002
 20
-287.3309453897624
 30
0.0
 11
289.2835601820002
 21
-477.3309453897623
 31
0.0
  0
ARC
  5
2666D
330
18
100
AcDbEntity
  8
0
100
AcDbCircle
 10
289.2835601819999
 20
-382.3309453897623
 30
0.0
 40
88.25000000000022
100
AcDbArc
 50
348.5707010185096
 51
11.42929898149024
  0
LINE
  5
2666E
330
18
100
AcDbEntity
  8
0
100
AcDbLine
 10
375.7835601819999
 20
-310.8309453897621
 30
0.0
 11
375.7835601819999
 21
-382.3309453897623
 31
0.0
  0
ARC
  5
2666F
330
18
100
AcDbEntity
  8
中心線
100
AcDbCircle
 10
289.2835601820002
 20
-382.3309453897623
 30
0.0
 40
85.0
100
AcDbArc
 50
296.4454352684893
 51
313.5545647315136
  0
LINE
  5
26670
330
18
100
AcDbEntity
  8
中心線
100
AcDbLine
 10
334.5960986537324
 20
-447.0439568885929
 30
0.0
 11
341.4790158899451
 21
-456.8737814200608
 31
0.0
  0
LINE
  5
26671
330
18
100
AcDbEntity
  8
DIMENSION
  6
BYBLOCK
 62
     0
100
AcDbLine
 10
335.5719006554437
 20
-453.6953514456699
 30
0.0
 11
340.4868129211779
 21
-450.2538928275636
 31
0.0
  0
HATCH
  5
26672
330
18
100
AcDbEntity
  8
DIMENSION
  6
BYBLOCK
 62
     0
100
AcDbHatch
 10
0.0
 20
0.0
 30
0.0
210
0.0
220
0.0
230
1.0
  2
ANSI31
 70
     0
 71
     0
 91
        4
 92
        7
 72
     1
 73
     1
 93
        3
 10
335.2288248656581
 20
-450.8989730534097
 42
0.0088242164717323
 10
338.0293567883108
 20
-451.9746221366164
 42
0.0
 10
335.5719006554437
 20
-453.6953514456699
 42
-0.2493796996436278
 97
        0
 92
        7
 72
     1
 73
     1
 93
        3
 10
338.0293567883108
 20
-451.9746221366164
 42
-0.0088242164717323
 10
335.2288248656581
 20
-450.8989730534097
 42
-0.1494012440317256
 10
336.3086274792578
 20
-449.5171660037497
 42
0.0
 97
        0
 92
        7
 72
     1
 73
     1
 93
        3
 10
338.0293567883108
 20
-451.9746221366164
 42
0.0
 10
340.4868129211779
 20
-450.2538928275636
 42
-0.2400272838228544
 10
340.8661026084921
 20
-452.950774354093
 42
-0.0088242164717324
 97
        0
 92
        7
 72
     1
 73
     1
 93
        3
 10
340.8661026084921
 20
-452.950774354093
 42
-0.1584343322340092
 10
339.7500860973639
 20
-454.4320782694836
 42
0.0
 10
338.0293567883108
 20
-451.9746221366164
 42
0.0088242164717324
 97
        0
 75
     0
 76
     1
 52
55.0
 41
1.0
 77
     0
 78
     1
 53
260.0
 43
-97.08137326371115
 44
-358.3187133779911
 45
-0.123100969126526
 46
0.0217060222083663
 79
     0
 47
0.0130930922504628
 98
        4
 10
335.4388763250148
 20
-451.9173691071237
 10
336.4168482191078
 20
-450.6889401606265
 10
339.6064981749701
 20
-451.7973392266423
 10
340.1465190992138
 20
-453.1620727720776
  0
CIRCLE
  5
26673
330
18
100
AcDbEntity
  8
0
100
AcDbCircle
 10
338.0293567883108
 20
-451.9746221366163
 30
0.0
 40
3.0
  0
LINE
  5
26674
330
18
100
AcDbEntity
  8
0
100
AcDbLine
 10
360.7835601819999
 20
-468.8309453897625
 30
0.0
 11
289.2835601820002
 21
-468.8309453897621
 31
0.0
  0
LWPOLYLINE
  5
26675
330
18
100
AcDbEntity
  8
DIMENSION
  6
CONTINUOUS
100
AcDbPolyline
 90
        6
 70
     1
 43
0.0
 10
323.5288848042373
 20
-461.0867836496558
 10
322.4744790804868
 20
-462.4609119421153
 10
320.7572462092826
 20
-462.2348339456822
 10
320.0944190618278
 20
-460.6346276567883
 10
321.1488247855782
 20
-459.2604993643286
 10
322.8660576567826
 20
-459.4865773607617
  0
CIRCLE
  5
26676
330
18
100
AcDbEntity
  8
DIMENSION
  6
CONTINUOUS
100
AcDbCircle
 10
321.8116519330322
 20
-460.8607056532211
 30
0.0
 40
3.5
  0
CIRCLE
  5
26677
330
18
100
AcDbEntity
  8
0
100
AcDbCircle
 10
321.8116519330322
 20
-460.8607056532211
 30
0.0
 40
4.0
  0
LINE
  5
26689
330
18
100
AcDbEntity
  8
DIMENSION
  6
BYBLOCK
 62
     0
100
AcDbLine
 10
336.3086274792578
 20
-449.5171660037497
 30
0.0
 11
339.7500860973639
 21
-454.4320782694836
 31
0.0
  0
ARC
  5
2668B
330
18
100
AcDbEntity
  8
中心線
 48
0.8
100
AcDbCircle
 10
289.2835601820002
 20
-382.3309453897623
 30
0.0
 40
102.4999999999999
100
AcDbArc
 50
308.8482301569808
 51
321.1517698429956
  0
LINE
  5
2668C
330
18
100
AcDbEntity
  8
中心線
 48
0.8
100
AcDbLine
 10
353.9838306605693
 20
-447.0312158683315
 30
0.0
 11
369.5401798466732
 21
-462.5875650544355
 31
0.0
  0
CIRCLE
  5
2668D
330
18
100
AcDbEntity
  8
0
100
AcDbCircle
 10
361.7620052536212
 20
-454.8093904613834
 30
0.0
 40
5.5
  0
CIRCLE
  5
26691
330
18
100
AcDbEntity
  8
DIMENSION
  6
CONTINUOUS
100
AcDbCircle
 10
367.8133204454589
 20
-414.8590371407949
 30
0.0
 40
3.5
  0
CIRCLE
  5
26692
330
18
100
AcDbEntity
  8
0
100
AcDbCircle
 10
367.8133204454589
 20
-414.8590371407949
 30
0.0
 40
4.0
  0
LINE
  5
26693
330
18
100
AcDbEntity
  8
0
100
AcDbLine
 10
375.7835601819999
 20
-453.8309453897625
 30
0.0
 11
375.7835601819999
 21
-382.3309453897623
 31
0.0
  0
LWPOLYLINE
  5
26695
330
18
100
AcDbEntity
  8
DIMENSION
  6
CONTINUOUS
100
AcDbPolyline
 90
        6
 70
     1
 43
0.0
 10
369.18744873792
 20
-413.8046314170455
 10
369.4135267343526
 20
-415.5218642882497
 10
368.0393984418923
 20
-416.5762700119999
 10
366.4391921529986
 20
-415.9134428645453
 10
366.213114156566
 20
-414.1962099933413
 10
367.5872424490261
 20
-413.1418042695909
  0
LINE
  5
26696
330
18
100
AcDbEntity
  8
0
100
AcDbLine
 10
360.7835601819999
 20
-295.8309453897621
 30
0.0
 11
289.2835601820002
 21
-295.8309453897621
 31
0.0
  0
LWPOLYLINE
  5
266A8
330
18
100
AcDbEntity
  8
DIMENSION
  6
CONTINUOUS
100
AcDbPolyline
 90
        6
 70
     1
 43
0.0
 10
320.7572462092834
 20
-302.4270568338426
 10
322.4744790804875
 20
-302.2009788374099
 10
323.5288848042378
 20
-303.5751071298697
 10
322.8660576567831
 20
-305.1753134187638
 10
321.1488247855791
 20
-305.4013914151965
 10
320.0944190618288
 20
-304.0272631227368
  0
CIRCLE
  5
266A9
330
18
100
AcDbEntity
  8
DIMENSION
  6
CONTINUOUS
100
AcDbCircle
 10
321.811651933033
 20
-303.801185126304
 30
0.0
 40
3.5
  0
CIRCLE
  5
266AA
330
18
100
AcDbEntity
  8
0
100
AcDbCircle
 10
321.811651933033
 20
-303.801185126304
 30
0.0
 40
4.0
  0
CIRCLE
  5
266AB
330
18
100
AcDbEntity
  8
DIMENSION
  6
CONTINUOUS
100
AcDbCircle
 10
367.8133204454592
 20
-349.8028536387291
 30
0.0
 40
3.5
  0
CIRCLE
  5
266AC
330
18
100
AcDbEntity
  8
0
100
AcDbCircle
 10
367.8133204454592
 20
-349.8028536387291
 30
0.0
 40
4.0
  0
CIRCLE
  5
266AE
330
18
100
AcDbEntity
  8
0
100
AcDbCircle
 10
361.7620052536212
 20
-309.8525003181411
 30
0.0
 40
5.5
  0
ARC
  5
266AF
330
18
100
AcDbEntity
  8
中心線
 48
0.8
100
AcDbCircle
 10
289.2835601820002
 20
-382.3309453897623
 30
0.0
 40
102.4999999999999
100
AcDbArc
 50
38.84823015700435
 51
51.15176984301903
  0
LINE
  5
266B0
330
18
100
AcDbEntity
  8
中心線
 48
0.8
100
AcDbLine
 10
353.9838306605693
 20
-317.6306749111933
 30
0.0
 11
369.5401798466732
 21
-302.0743257250898
 31
0.0
  0
LWPOLYLINE
  5
266B3
330
18
100
AcDbEntity
  8
DIMENSION
  6
CONTINUOUS
100
AcDbPolyline
 90
        6
 70
     1
 43
0.0
 10
368.0393984418937
 20
-348.0856207675248
 10
369.4135267343531
 20
-349.140026491275
 10
369.18744873792
 20
-350.8572593624794
 10
367.5872424490261
 20
-351.5200865099341
 10
366.2131141565664
 20
-350.4656807861838
 10
366.4391921529995
 20
-348.7484479149794
  0
LINE
  5
26BE2
330
18
100
AcDbEntity
  8
中心線
100
AcDbLine
 10
-82.57051459044395
 20
-334.3309453897623
 30
0.0
 11
-51.38210224190697
 21
-334.3309453897623
 31
0.0
  0
LINE
  5
26BE3
330
18
100
AcDbEntity
  8
中心線
100
AcDbLine
 10
-82.41699921771214
 20
-430.3309453897623
 30
0.0
 11
-53.30720941273558
 21
-430.3309453897623
 31
0.0
  0
CIRCLE
  5
26C2F
330
18
100
AcDbEntity
  8
0
100
AcDbCircle
 10
289.2835601820002
 20
-382.3309453897621
 30
0.0
 40
19.39999999999998
  0
LINE
  5
26C6D
330
18
100
AcDbEntity
  8
破線
100
AcDbLine
 10
77.92072007807917
 20
-664.8510887625507
 30
0.0
 11
77.92072007807917
 21
-666.3510887625513
 31
0.0
  0
LINE
  5
27358
330
18
100
AcDbEntity
  8
0
100
AcDbLine
 10
-242.8148047847666
 20
-426.3059514428047
 30
0.0
 11
-233.3148047847662
 21
-426.3059514428047
 31
0.0
  0
LINE
  5
27359
330
18
100
AcDbEntity
  8
0
100
AcDbLine
 10
-242.8148047847666
 20
-433.8559514428052
 30
0.0
 11
-233.3148047847662
 21
-433.8559514428047
 31
0.0
  0
LINE
  5
2735A
330
18
100
AcDbEntity
  8
0
100
AcDbLine
 10
-242.8148047847666
 20
-429.7559514428053
 30
0.0
 11
-233.3148047847662
 21
-429.7559514428053
 31
0.0
  0
LINE
  5
2735B
330
18
100
AcDbEntity
  8
0
100
AcDbLine
 10
-242.8148047847666
 20
-430.405951442805
 30
0.0
 11
-233.3148047847662
 21
-430.405951442805
 31
0.0
  0
LINE
  5
2735C
330
18
100
AcDbEntity
  8
0
100
AcDbLine
 10
-242.8148047847666
 20
-655.7792053103162
 30
0.0
 11
-233.3148047847662
 21
-655.7792053103162
 31
0.0
  0
LINE
  5
2735D
330
18
100
AcDbEntity
  8
0
100
AcDbLine
 10
-242.8148047847666
 20
-656.4292053103159
 30
0.0
 11
-233.3148047847662
 21
-656.4292053103159
 31
0.0
  0
LINE
  5
2735E
330
18
100
AcDbEntity
  8
0
100
AcDbLine
 10
-242.8148047847666
 20
-659.8792053103161
 30
0.0
 11
-233.3148047847662
 21
-659.8792053103156
 31
0.0
  0
LINE
  5
2735F
330
18
100
AcDbEntity
  8
0
100
AcDbLine
 10
-242.8148047847666
 20
-652.3292053103157
 30
0.0
 11
-233.3148047847662
 21
-652.3292053103157
 31
0.0
  0
LINE
  5
27360
330
18
100
AcDbEntity
  8
0
100
AcDbLine
 10
-242.8148047847666
 20
-659.8792053103161
 30
0.0
 11
-242.8148047847666
 21
-656.4292053103159
 31
0.0
  0
LINE
  5
27361
330
18
100
AcDbEntity
  8
0
100
AcDbLine
 10
-242.8148047847666
 20
-655.7792053103162
 30
0.0
 11
-242.8148047847666
 21
-652.3292053103157
 31
0.0
  0
LINE
  5
27362
330
18
100
AcDbEntity
  8
0
100
AcDbLine
 10
-242.8148047847666
 20
-433.8559514428052
 30
0.0
 11
-242.8148047847666
 21
-430.405951442805
 31
0.0
  0
LINE
  5
27363
330
18
100
AcDbEntity
  8
0
100
AcDbLine
 10
-242.8148047847666
 20
-429.7559514428053
 30
0.0
 11
-242.8148047847666
 21
-426.3059514428047
 31
0.0
  0
LINE
  5
27368
330
18
100
AcDbEntity
  8
0
100
AcDbLine
 10
-219.1147596832911
 20
-662.3541992572736
 30
0.0
 11
-219.1147596832907
 21
-650.3541992572727
 31
0.0
  0
LINE
  5
27369
330
18
100
AcDbEntity
  8
0
100
AcDbLine
 10
-233.3148047847662
 20
-661.354205310316
 30
0.0
 11
-233.3148047847662
 21
-651.354205310316
 31
0.0
  0
LINE
  5
2736A
330
18
100
AcDbEntity
  8
0
100
AcDbLine
 10
-220.21475968329
 20
-661.354205310316
 30
0.0
 11
-233.3148047847662
 21
-661.354205310316
 31
0.0
  0
LINE
  5
2736B
330
18
100
AcDbEntity
  8
0
100
AcDbLine
 10
-220.2147596832912
 20
-662.3541992572736
 30
0.0
 11
-220.2147596832916
 21
-661.354205310316
 31
0.0
  0
LINE
  5
2736C
330
18
100
AcDbEntity
  8
0
100
AcDbLine
 10
-219.1147596832909
 20
-662.3541992572736
 30
0.0
 11
-220.2147596832903
 21
-662.3541992572736
 31
0.0
  0
LINE
  5
27376
330
18
100
AcDbEntity
  8
0
100
AcDbLine
 10
-220.21475968329
 20
-651.354205310316
 30
0.0
 11
-233.3148047847662
 21
-651.354205310316
 31
0.0
  0
LINE
  5
27377
330
18
100
AcDbEntity
  8
0
100
AcDbLine
 10
-220.21475968329
 20
-651.354205310316
 30
0.0
 11
-220.21475968329
 21
-650.3541992572727
 31
0.0
  0
LINE
  5
27378
330
18
100
AcDbEntity
  8
0
100
AcDbLine
 10
-219.1147596832907
 20
-650.3541992572727
 30
0.0
 11
-220.21475968329
 21
-650.3541992572727
 31
0.0
  0
LINE
  5
27379
330
18
100
AcDbEntity
  8
0
100
AcDbLine
 10
-220.21475968329
 20
-435.330951442805
 30
0.0
 11
-233.3148047847662
 21
-435.330951442805
 31
0.0
  0
LINE
  5
2737A
330
18
100
AcDbEntity
  8
0
100
AcDbLine
 10
-220.21475968329
 20
-425.3309514428051
 30
0.0
 11
-233.3148047847662
 21
-425.3309514428051
 31
0.0
  0
LINE
  5
2737B
330
18
100
AcDbEntity
  8
0
100
AcDbLine
 10
-231.3008624710618
 20
-423.8661934624358
 30
0.0
 11
-225.8348047847657
 21
-422.9023800142336
 31
0.0
  0
ARC
  5
2737C
330
18
100
AcDbEntity
  8
0
100
AcDbCircle
 10
-231.2165190704804
 20
-424.8452371570911
 30
0.0
 40
0.4857142857142857
100
AcDbArc
 50
180.000000000013
 51
270.0
  0
LINE
  5
2737D
330
18
100
AcDbEntity
  8
0
100
AcDbLine
 10
-231.7022333561944
 20
-424.8452371570911
 30
0.0
 11
-231.7022333561949
 21
-424.3445286567566
 31
0.0
  0
ARC
  5
2737E
330
18
100
AcDbEntity
  8
0
100
AcDbCircle
 10
-231.2165190704809
 20
-424.3445286567562
 30
0.0
 40
0.4857142857142857
100
AcDbArc
 50
100.0000000000015
 51
180.000000000013
  0
LINE
  5
2737F
330
18
100
AcDbEntity
  8
0
100
AcDbLine
 10
-233.3148047847662
 20
-425.3309514428051
 30
0.0
 11
-233.3148047847662
 21
-421.5132371570907
 31
0.0
  0
LINE
  5
27380
330
18
100
AcDbEntity
  8
0
100
AcDbLine
 10
-226.8062333561946
 20
-421.9309514428045
 30
0.0
 11
-226.8062333561946
 21
-421.5132371570907
 31
0.0
  0
LINE
  5
27381
330
18
100
AcDbEntity
  8
0
100
AcDbLine
 10
-225.8348047847657
 20
-422.9023800142336
 30
0.0
 11
-225.8348047847662
 21
-421.5132371570907
 31
0.0
  0
LINE
  5
27382
330
18
100
AcDbEntity
  8
0
100
AcDbLine
 10
-233.3148047847662
 20
-435.330951442805
 30
0.0
 11
-233.3148047847662
 21
-425.3309514428051
 31
0.0
  0
LINE
  5
27383
330
18
100
AcDbEntity
  8
0
100
AcDbLine
 10
-236.6176619276234
 20
-422.9023800142336
 30
0.0
 11
-236.6176619276234
 21
-421.930951442805
 31
0.0
  0
LINE
  5
27384
330
18
100
AcDbEntity
  8
0
100
AcDbLine
 10
-236.6176619276234
 20
-425.1366657285193
 30
0.0
 11
-236.7148047847666
 21
-424.0680942999479
 31
0.0
  0
LINE
  5
27385
330
18
100
AcDbEntity
  8
0
100
AcDbLine
 10
-238.0748047847664
 20
-421.930951442805
 30
0.0
 11
-239.0462333561949
 21
-422.9023800142336
 31
0.0
  0
LINE
  5
27386
330
18
100
AcDbEntity
  8
0
100
AcDbLine
 10
-239.0462333561949
 20
-424.1652371570908
 30
0.0
 11
-238.0748047847664
 21
-425.1366657285193
 31
0.0
  0
LINE
  5
27387
330
18
100
AcDbEntity
  8
0
100
AcDbLine
 10
-239.0462333561949
 20
-424.1652371570908
 30
0.0
 11
-239.0462333561949
 21
-422.9023800142336
 31
0.0
  0
LINE
  5
27388
330
18
100
AcDbEntity
  8
0
100
AcDbLine
 10
-238.0748047847664
 20
-425.1366657285193
 30
0.0
 11
-236.6176619276239
 21
-425.1366657285193
 31
0.0
  0
LINE
  5
27389
330
18
100
AcDbEntity
  8
0
100
AcDbLine
 10
-236.6176619276234
 20
-421.930951442805
 30
0.0
 11
-236.1999476419089
 21
-421.5132371570907
 31
0.0
  0
LINE
  5
2738A
330
18
100
AcDbEntity
  8
0
100
AcDbLine
 10
-236.1999476419089
 20
-421.5132371570907
 30
0.0
 11
-225.8348047847666
 21
-421.5132371570907
 31
0.0
  0
LINE
  5
2738B
330
18
100
AcDbEntity
  8
0
100
AcDbLine
 10
-238.0748047847664
 20
-421.930951442805
 30
0.0
 11
-226.8062333561946
 21
-421.9309514428045
 31
0.0
  0
LINE
  5
2738C
330
18
100
AcDbEntity
  8
0
100
AcDbLine
 10
-236.6176619276234
 20
-422.9023800142336
 30
0.0
 11
-233.3148047847662
 21
-422.9023800142336
 31
0.0
  0
LINE
  5
2738D
330
18
100
AcDbEntity
  8
0
100
AcDbLine
 10
-236.7148047847666
 20
-424.0680942999479
 30
0.0
 11
-233.3148047847662
 21
-424.0680942999479
 31
0.0
  0
LINE
  5
2738E
330
18
100
AcDbEntity
  8
0
100
AcDbLine
 10
-220.21475968329
 20
-425.3309514428051
 30
0.0
 11
-220.21475968329
 21
-424.3309453897618
 31
0.0
  0
LINE
  5
2738F
330
18
100
AcDbEntity
  8
0
100
AcDbLine
 10
-219.1147596832907
 20
-424.3309453897618
 30
0.0
 11
-220.21475968329
 21
-424.3309453897618
 31
0.0
  0
LINE
  5
27390
330
18
100
AcDbEntity
  8
0
100
AcDbLine
 10
-220.2147596832912
 20
-436.3309453897626
 30
0.0
 11
-220.2147596832916
 21
-435.330951442805
 31
0.0
  0
LINE
  5
27391
330
18
100
AcDbEntity
  8
0
100
AcDbLine
 10
-219.1147596832909
 20
-436.3309453897626
 30
0.0
 11
-220.2147596832903
 21
-436.3309453897626
 31
0.0
  0
LINE
  5
27392
330
18
100
AcDbEntity
  8
0
100
AcDbLine
 10
-219.1147596832911
 20
-436.3309453897626
 30
0.0
 11
-219.1147596832907
 21
-424.3309453897618
 31
0.0
  0
LINE
  5
27393
330
18
100
AcDbEntity
  8
0
100
AcDbLine
 10
-219.1147596832913
 20
-342.1488314062216
 30
0.0
 11
-219.1147596832903
 21
-326.5488314062213
 31
0.0
  0
LINE
  5
27394
330
18
100
AcDbEntity
  8
0
100
AcDbLine
 10
-233.314804784766
 20
-341.1488374592638
 30
0.0
 11
-233.314804784766
 21
-327.5488374592646
 31
0.0
  0
LINE
  5
27395
330
18
100
AcDbEntity
  8
0
100
AcDbLine
 10
-242.814804784766
 20
-340.1738374592646
 30
0.0
 11
-242.8148047847663
 21
-336.7238374592639
 31
0.0
  0
LINE
  5
27396
330
18
100
AcDbEntity
  8
0
100
AcDbLine
 10
-242.8148047847663
 20
-340.1738374592646
 30
0.0
 11
-233.314804784766
 21
-340.1738374592646
 31
0.0
  0
LINE
  5
273A8
330
18
100
AcDbEntity
  8
0
100
AcDbLine
 10
-220.2147596832908
 20
-342.1488314062216
 30
0.0
 11
-220.2147596832912
 21
-341.1488374592638
 31
0.0
  0
LINE
  5
273A9
330
18
100
AcDbEntity
  8
0
100
AcDbLine
 10
-219.1147596832903
 20
-342.1488314062216
 30
0.0
 11
-220.2147596832899
 21
-342.1488314062216
 31
0.0
  0
LINE
  5
273AA
330
18
100
AcDbEntity
  8
0
100
AcDbLine
 10
-220.2147596832912
 20
-341.1488374592638
 30
0.0
 11
-233.314804784766
 21
-341.1488374592638
 31
0.0
  0
LINE
  5
273B1
330
18
100
AcDbEntity
  8
0
100
AcDbLine
 10
-236.7148047847665
 20
-326.2859803164071
 30
0.0
 11
-233.314804784766
 21
-326.2859803164071
 31
0.0
  0
LINE
  5
273B2
330
18
100
AcDbEntity
  8
0
100
AcDbLine
 10
-236.6176619276231
 20
-325.120266030693
 30
0.0
 11
-233.314804784766
 21
-325.120266030693
 31
0.0
  0
LINE
  5
273B3
330
18
100
AcDbEntity
  8
0
100
AcDbLine
 10
-236.1999476419089
 20
-323.7311231735501
 30
0.0
 11
-225.8348047847662
 21
-323.7311231735501
 31
0.0
  0
LINE
  5
273B4
330
18
100
AcDbEntity
  8
0
100
AcDbLine
 10
-242.8148047847663
 20
-328.5238374592645
 30
0.0
 11
-233.314804784766
 21
-328.5238374592645
 31
0.0
  0
LINE
  5
273B5
330
18
100
AcDbEntity
  8
0
100
AcDbLine
 10
-242.8148047847663
 20
-336.7238374592643
 30
0.0
 11
-233.314804784766
 21
-336.7238374592643
 31
0.0
  0
LINE
  5
273B6
330
18
100
AcDbEntity
  8
0
100
AcDbLine
 10
-242.8148047847663
 20
-336.0738374592646
 30
0.0
 11
-233.314804784766
 21
-336.073837459264
 31
0.0
  0
LINE
  5
273B7
330
18
100
AcDbEntity
  8
0
100
AcDbLine
 10
-242.8148047847663
 20
-332.6238374592644
 30
0.0
 11
-233.314804784766
 21
-332.6238374592644
 31
0.0
  0
LINE
  5
273B8
330
18
100
AcDbEntity
  8
0
100
AcDbLine
 10
-242.8148047847663
 20
-331.9738374592648
 30
0.0
 11
-233.314804784766
 21
-331.9738374592648
 31
0.0
  0
LINE
  5
273B9
330
18
100
AcDbEntity
  8
0
100
AcDbLine
 10
-238.0748047847661
 20
-324.1488374592643
 30
0.0
 11
-226.8062333561945
 21
-324.1488374592638
 31
0.0
  0
LINE
  5
273BA
330
18
100
AcDbEntity
  8
0
100
AcDbLine
 10
-236.6176619276231
 20
-324.1488374592643
 30
0.0
 11
-236.1999476419089
 21
-323.7311231735501
 31
0.0
  0
LINE
  5
273BB
330
18
100
AcDbEntity
  8
0
100
AcDbLine
 10
-236.6176619276231
 20
-327.3545517449788
 30
0.0
 11
-236.7148047847665
 21
-326.2859803164071
 31
0.0
  0
LINE
  5
273BC
330
18
100
AcDbEntity
  8
0
100
AcDbLine
 10
-236.6176619276231
 20
-325.120266030693
 30
0.0
 11
-236.6176619276231
 21
-324.1488374592643
 31
0.0
  0
LINE
  5
273BD
330
18
100
AcDbEntity
  8
0
100
AcDbLine
 10
-239.0462333561946
 20
-326.3831231735502
 30
0.0
 11
-239.0462333561946
 21
-325.120266030693
 31
0.0
  0
LINE
  5
273BE
330
18
100
AcDbEntity
  8
0
100
AcDbLine
 10
-239.0462333561946
 20
-326.3831231735502
 30
0.0
 11
-238.0748047847661
 21
-327.3545517449788
 31
0.0
  0
LINE
  5
273BF
330
18
100
AcDbEntity
  8
0
100
AcDbLine
 10
-238.0748047847661
 20
-324.1488374592643
 30
0.0
 11
-239.0462333561946
 21
-325.120266030693
 31
0.0
  0
LINE
  5
273C0
330
18
100
AcDbEntity
  8
0
100
AcDbLine
 10
-242.8148047847663
 20
-336.0738374592646
 30
0.0
 11
-242.8148047847663
 21
-332.6238374592644
 31
0.0
  0
LINE
  5
273C1
330
18
100
AcDbEntity
  8
0
100
AcDbLine
 10
-242.8148047847663
 20
-331.9738374592648
 30
0.0
 11
-242.8148047847663
 21
-328.5238374592645
 31
0.0
  0
LINE
  5
273C2
330
18
100
AcDbEntity
  8
0
100
AcDbLine
 10
-238.0748047847661
 20
-327.3545517449788
 30
0.0
 11
-236.6176619276235
 21
-327.3545517449788
 31
0.0
  0
LINE
  5
273C3
330
18
100
AcDbEntity
  8
0
100
AcDbLine
 10
-220.2147596832899
 20
-327.5488374592646
 30
0.0
 11
-220.2147596832899
 21
-326.5488314062213
 31
0.0
  0
LINE
  5
273C4
330
18
100
AcDbEntity
  8
0
100
AcDbLine
 10
-219.1147596832903
 20
-326.5488314062213
 30
0.0
 11
-220.2147596832899
 21
-326.5488314062213
 31
0.0
  0
LINE
  5
273C5
330
18
100
AcDbEntity
  8
0
100
AcDbLine
 10
-231.3008624710616
 20
-326.0840794788955
 30
0.0
 11
-225.8348047847654
 21
-325.120266030693
 31
0.0
  0
ARC
  5
273C6
330
18
100
AcDbEntity
  8
0
100
AcDbCircle
 10
-231.2165190704805
 20
-326.5624146732156
 30
0.0
 40
0.4857142857142857
100
AcDbArc
 50
100.0000000000015
 51
180.000000000013
  0
ARC
  5
273C7
330
18
100
AcDbEntity
  8
0
100
AcDbCircle
 10
-231.2165190704799
 20
-327.0631231735506
 30
0.0
 40
0.4857142857142857
100
AcDbArc
 50
180.000000000013
 51
270.0
  0
LINE
  5
273C8
330
18
100
AcDbEntity
  8
0
100
AcDbLine
 10
-231.7022333561942
 20
-327.0631231735506
 30
0.0
 11
-231.7022333561947
 21
-326.5624146732161
 31
0.0
  0
LINE
  5
273C9
330
18
100
AcDbEntity
  8
0
100
AcDbLine
 10
-226.8062333561945
 20
-324.1488374592638
 30
0.0
 11
-226.8062333561945
 21
-323.7311231735501
 31
0.0
  0
LINE
  5
273CA
330
18
100
AcDbEntity
  8
0
100
AcDbLine
 10
-225.8348047847654
 20
-325.120266030693
 30
0.0
 11
-225.8348047847658
 21
-323.7311231735501
 31
0.0
  0
LINE
  5
273CB
330
18
100
AcDbEntity
  8
0
100
AcDbLine
 10
-233.314804784766
 20
-327.5488374592646
 30
0.0
 11
-233.314804784766
 21
-323.7311231735501
 31
0.0
  0
LINE
  5
273CC
330
18
100
AcDbEntity
  8
0
100
AcDbLine
 10
-220.2147596832899
 20
-327.5488374592646
 30
0.0
 11
-233.314804784766
 21
-327.5488374592646
 31
0.0
  0
LINE
  5
273E3
330
18
100
AcDbEntity
  8
0
100
AcDbLine
 10
-197.2238524406881
 20
-427.819360392797
 30
0.0
 11
-197.2238524406881
 21
-432.8193603861969
 31
0.0
  0
LINE
  5
273E4
330
18
100
AcDbEntity
  8
0
100
AcDbLine
 10
-206.6770548832958
 20
-431.2966880927742
 30
0.0
 11
-219.1206154053886
 21
-432.8618301187473
 31
0.0
  0
LINE
  5
273E5
330
18
100
AcDbEntity
  8
0
100
AcDbLine
 10
-205.0864845654184
 20
-431.4967488748433
 30
0.0
 11
-219.1196394517056
 21
-433.2618289281385
 31
0.0
  0
LINE
  5
273E6
330
18
100
AcDbEntity
  8
0
100
AcDbLine
 10
-197.2345879312008
 20
-432.4843547440791
 30
0.0
 11
-219.1254951738035
 21
-429.7309322930653
 31
0.0
  0
LINE
  5
273E7
330
18
100
AcDbEntity
  8
0
100
AcDbLine
 10
-197.2287322091031
 20
-430.0843618877316
 30
0.0
 11
-219.1196394517056
 21
-427.3309394367181
 31
0.0
  0
LINE
  5
273E8
330
18
100
AcDbEntity
  8
0
100
AcDbLine
 10
-197.2297081627861
 20
-430.4843606971227
 30
0.0
 11
-219.1206154053886
 21
-427.7309382461094
 31
0.0
  0
LINE
  5
273E9
330
18
100
AcDbEntity
  8
0
100
AcDbLine
 10
-197.2238524406881
 20
-428.0843678407753
 30
0.0
 11
-219.1147596832907
 21
-425.3309453897618
 31
0.0
  0
LINE
  5
273EA
330
18
100
AcDbEntity
  8
0
100
AcDbLine
 10
-197.2238524406881
 20
-432.5084005240811
 30
0.0
 11
-219.1147596832907
 21
-435.2618229750949
 31
0.0
  0
LINE
  5
273EB
330
18
100
AcDbEntity
  8
0
100
AcDbLine
 10
-214.629906472681
 20
-430.2963841824282
 30
0.0
 11
-219.1254951738035
 21
-430.8618360717911
 31
0.0
  0
LINE
  5
273EC
330
18
100
AcDbEntity
  8
0
100
AcDbLine
 10
-197.2297081627861
 20
-430.1084076677338
 30
0.0
 11
-198.7242032939098
 21
-430.2963841824282
 31
0.0
  0
LINE
  5
273ED
330
18
100
AcDbEntity
  8
0
100
AcDbLine
 10
-205.0864845654184
 20
-429.0960194900131
 30
0.0
 11
-206.6770548832958
 21
-429.2960802720823
 31
0.0
  0
LINE
  5
273FD
330
18
100
AcDbEntity
  8
0
100
AcDbLine
 10
-197.2238524406881
 20
-653.8426142603078
 30
0.0
 11
-197.2238524406881
 21
-658.8426142537078
 31
0.0
  0
LINE
  5
273FE
330
18
100
AcDbEntity
  8
0
100
AcDbLine
 10
-206.6770548832958
 20
-657.319941960285
 30
0.0
 11
-219.1206154053886
 21
-658.8850839862582
 31
0.0
  0
LINE
  5
273FF
330
18
100
AcDbEntity
  8
0
100
AcDbLine
 10
-205.0864845654184
 20
-657.5200027423542
 30
0.0
 11
-219.1196394517056
 21
-659.2850827956493
 31
0.0
  0
LINE
  5
27400
330
18
100
AcDbEntity
  8
0
100
AcDbLine
 10
-197.2345879312008
 20
-658.5076086115901
 30
0.0
 11
-219.1254951738035
 21
-655.7541861605764
 31
0.0
  0
LINE
  5
27401
330
18
100
AcDbEntity
  8
0
100
AcDbLine
 10
-197.2287322091031
 20
-656.1076157552425
 30
0.0
 11
-219.1196394517056
 21
-653.3541933042291
 31
0.0
  0
LINE
  5
27402
330
18
100
AcDbEntity
  8
0
100
AcDbLine
 10
-197.2297081627861
 20
-656.5076145646337
 30
0.0
 11
-219.1206154053886
 21
-653.7541921136202
 31
0.0
  0
LINE
  5
27403
330
18
100
AcDbEntity
  8
0
100
AcDbLine
 10
-197.2238524406881
 20
-654.1076217082864
 30
0.0
 11
-219.1147596832907
 21
-651.3541992572727
 31
0.0
  0
LINE
  5
27404
330
18
100
AcDbEntity
  8
0
100
AcDbLine
 10
-197.2238524406881
 20
-658.5316543915921
 30
0.0
 11
-219.1147596832907
 21
-661.2850768426056
 31
0.0
  0
LINE
  5
27405
330
18
100
AcDbEntity
  8
0
100
AcDbLine
 10
-214.629906472681
 20
-656.3196380499394
 30
0.0
 11
-219.1254951738035
 21
-656.8850899393021
 31
0.0
  0
LINE
  5
27406
330
18
100
AcDbEntity
  8
0
100
AcDbLine
 10
-197.2297081627861
 20
-656.1316615352447
 30
0.0
 11
-198.7242032939098
 21
-656.3196380499394
 31
0.0
  0
LINE
  5
27407
330
18
100
AcDbEntity
  8
0
100
AcDbLine
 10
-205.0864845654184
 20
-655.119273357524
 30
0.0
 11
-206.6770548832958
 21
-655.3193341395934
 31
0.0
  0
LINE
  5
27442
330
18
100
AcDbEntity
  8
0
100
AcDbLine
 10
-172.4207841868491
 20
-330.4798051814183
 30
0.0
 11
-161.6101245077985
 21
-323.0711974355652
 31
0.0
  0
ARC
  5
27443
330
18
100
AcDbEntity
  8
0
100
AcDbCircle
 10
-178.0737756194958
 20
-322.2309453897608
 30
0.0
 40
10.0
100
AcDbArc
 50
269.999999999998
 51
304.423066929448
  0
LINE
  5
27444
330
18
100
AcDbEntity
  8
0
100
AcDbLine
 10
-182.9530688174752
 20
-332.2309453897605
 30
0.0
 11
-178.0699093704718
 21
-332.2309453897608
 31
0.0
  0
ARC
  5
27445
330
18
100
AcDbEntity
  8
0
100
AcDbCircle
 10
-178.0699093704719
 20
-342.2309453897606
 30
0.0
 40
10.0
100
AcDbArc
 50
55.61736231583875
 51
90.0
  0
LINE
  5
27446
330
18
100
AcDbEntity
  8
0
100
AcDbLine
 10
-182.9530688174752
 20
-336.4422663968472
 30
0.0
 11
-178.0672808784064
 21
-336.4422663968472
 31
0.0
  0
ARC
  5
27447
330
18
100
AcDbEntity
  8
0
100
AcDbCircle
 10
-178.0672808784068
 20
-346.4422663968471
 30
0.0
 40
10.0
100
AcDbArc
 50
55.64485341677275
 51
89.99999999999836
  0
LINE
  5
27448
330
18
100
AcDbEntity
  8
0
100
AcDbLine
 10
-172.4240718915525
 20
-338.1867111562418
 30
0.0
 11
-161.4524905730553
 21
-345.6865006303662
 31
0.0
  0
LINE
  5
27449
330
18
100
AcDbEntity
  8
0
100
AcDbLine
 10
-172.422739933525
 20
-333.9780987687205
 30
0.0
 11
-161.4538225310834
 21
-341.4837920108003
 31
0.0
  0
ARC
  5
2744A
330
18
100
AcDbEntity
  8
0
100
AcDbCircle
 10
-155.616703154773
 20
-335.3200572272251
 30
0.0
 40
10.0
100
AcDbArc
 50
90.00000000000161
 51
124.3605280011045
  0
LINE
  5
2744B
330
18
100
AcDbEntity
  8
0
100
AcDbLine
 10
-171.8975388207331
 20
-334.3374777574015
 30
0.0
 11
-161.2606875070509
 21
-327.0650320527486
 31
0.0
  0
ARC
  5
2744C
330
18
100
AcDbEntity
  8
0
100
AcDbCircle
 10
-155.9571330751518
 20
-331.3200572272226
 30
0.0
 40
10.0
100
AcDbArc
 50
89.99999999999836
 51
124.423066929448
  0
ARC
  5
2744D
330
18
100
AcDbEntity
  8
0
100
AcDbCircle
 10
-155.8066530941366
 20
-333.2309453897603
 30
0.0
 40
10.0
100
AcDbArc
 50
235.6173623158387
 51
270.0
  0
ARC
  5
2744E
330
18
100
AcDbEntity
  8
0
100
AcDbCircle
 10
-155.8092815862011
 20
-337.4309453897608
 30
0.0
 40
10.0
100
AcDbArc
 50
235.6448534167725
 51
270.0
  0
LINE
  5
27450
330
18
100
AcDbEntity
  8
0
100
AcDbLine
 10
-89.48535344810125
 20
-330.4798051814183
 30
0.0
 11
-100.2960131271517
 21
-323.0711974355652
 31
0.0
  0
ARC
  5
27451
330
18
100
AcDbEntity
  8
0
100
AcDbCircle
 10
-105.9490045597982
 20
-331.3200572272226
 30
0.0
 40
10.0
100
AcDbArc
 50
55.57693307055201
 51
90.00000000000161
  0
ARC
  5
27452
330
18
100
AcDbEntity
  8
0
100
AcDbCircle
 10
-106.2894344801772
 20
-335.3200572272251
 30
0.0
 40
10.0
100
AcDbArc
 50
55.63947199889547
 51
89.9999999999984
  0
LINE
  5
27453
330
18
100
AcDbEntity
  8
0
100
AcDbLine
 10
-90.0085988142173
 20
-334.3374777574015
 30
0.0
 11
-100.6454501278994
 21
-327.0650320527486
 31
0.0
  0
ARC
  5
27454
330
18
100
AcDbEntity
  8
0
100
AcDbCircle
 10
-83.83236201545456
 20
-322.2309453897608
 30
0.0
 40
10.0
100
AcDbArc
 50
235.5769330705519
 51
270.0000000000016
  0
LINE
  5
27455
330
18
100
AcDbEntity
  8
0
100
AcDbLine
 10
-76.05985360295267
 20
-332.2309453897603
 30
0.0
 11
-83.83622826447867
 21
-332.2309453897608
 31
0.0
  0
ARC
  5
27456
330
18
100
AcDbEntity
  8
0
100
AcDbCircle
 10
-83.83622826447856
 20
-342.2309453897606
 30
0.0
 40
10.0
100
AcDbArc
 50
90.0
 51
124.3826376841612
  0
LINE
  5
27457
330
18
100
AcDbEntity
  8
0
100
AcDbLine
 10
-89.48339770142547
 20
-333.9780987687205
 30
0.0
 11
-100.4523151038669
 21
-341.4837920108003
 31
0.0
  0
ARC
  5
27458
330
18
100
AcDbEntity
  8
0
100
AcDbCircle
 10
-106.0994845408135
 20
-333.2309453897603
 30
0.0
 40
10.0
100
AcDbArc
 50
270.0
 51
304.3826376841611
  0
ARC
  5
27459
330
18
100
AcDbEntity
  8
0
100
AcDbCircle
 10
-106.0968560487492
 20
-337.4309453897608
 30
0.0
 40
10.0
100
AcDbArc
 50
270.0
 51
304.3551465832273
  0
LINE
  5
2745A
330
18
100
AcDbEntity
  8
0
100
AcDbLine
 10
-89.48206574339792
 20
-338.1867111562418
 30
0.0
 11
-100.453647061895
 21
-345.6865006303662
 31
0.0
  0
ARC
  5
2745B
330
18
100
AcDbEntity
  8
0
100
AcDbCircle
 10
-83.83885675654367
 20
-346.4422663968471
 30
0.0
 40
10.0
100
AcDbArc
 50
90.00000000000161
 51
124.3551465832272
  0
LINE
  5
2745C
330
18
100
AcDbEntity
  8
0
100
AcDbLine
 10
-76.05985360295267
 20
-336.4422663968471
 30
0.0
 11
-83.83885675654381
 21
-336.4422663968472
 31
0.0
  0
LINE
  5
2745D
330
18
100
AcDbEntity
  8
0
100
AcDbLine
 10
-155.9571330751518
 20
-321.3200572272226
 30
0.0
 11
-130.9076950120082
 21
-321.3200572272226
 31
0.0
  0
LINE
  5
2745E
330
18
100
AcDbEntity
  8
0
100
AcDbLine
 10
-155.616703154773
 20
-325.3200572272251
 30
0.0
 11
-130.837380929489
 21
-325.3200572272251
 31
0.0
  0
LINE
  5
2745F
330
18
100
AcDbEntity
  8
0
100
AcDbLine
 10
-155.8066530941366
 20
-343.2309453897603
 30
0.0
 11
-130.9530688174727
 21
-343.2309453897603
 31
0.0
  0
LINE
  5
27460
330
18
100
AcDbEntity
  8
0
100
AcDbLine
 10
-155.8092815862011
 20
-347.4309453897608
 30
0.0
 11
-130.9530688174752
 21
-347.4309453897608
 31
0.0
  0
ARC
  5
27461
330
18
100
AcDbEntity
  8
細線
100
AcDbCircle
 10
-129.2948420193591
 20
-324.4167174226826
 30
0.0
 40
1.579751577084588
100
AcDbArc
 50
318.3436407292488
 51
41.6563592707512
  0
ARC
  5
27462
330
18
100
AcDbEntity
  8
細線
100
AcDbCircle
 10
-126.9342361265415
 20
-324.4167174226826
 30
0.0
 40
1.579751577084588
100
AcDbArc
 50
138.3436407292487
 51
221.656359270751
  0
ARC
  5
27463
330
18
100
AcDbEntity
  8
細線
100
AcDbCircle
 10
-126.9342361265415
 20
-322.3167174226828
 30
0.0
 40
1.579751577084588
100
AcDbArc
 50
138.3436407292487
 51
221.656359270751
  0
ARC
  5
27464
330
18
100
AcDbEntity
  8
細線
100
AcDbCircle
 10
-132.1333717638825
 20
-324.4167174226836
 30
0.0
 40
1.579751577084588
100
AcDbArc
 50
318.3436407292488
 51
41.6563592707512
  0
ARC
  5
27465
330
18
100
AcDbEntity
  8
細線
100
AcDbCircle
 10
-129.7727658710646
 20
-322.3167174226836
 30
0.0
 40
1.579751577084588
100
AcDbArc
 50
138.3436407292487
 51
221.656359270751
  0
ARC
  5
27466
330
18
100
AcDbEntity
  8
細線
100
AcDbCircle
 10
-132.1333717638825
 20
-322.3167174226836
 30
0.0
 40
1.579751577084588
100
AcDbArc
 50
318.3436407292488
 51
41.6563592707512
  0
LINE
  5
27467
330
18
100
AcDbEntity
  8
0
100
AcDbLine
 10
-128.2302269609342
 20
-325.3200572272251
 30
0.0
 11
-106.2894344801768
 21
-325.3200572272251
 31
0.0
  0
LINE
  5
27468
330
18
100
AcDbEntity
  8
0
100
AcDbLine
 10
-128.1599128784164
 20
-321.3200572272226
 30
0.0
 11
-105.9490045597985
 21
-321.3200572272226
 31
0.0
  0
LINE
  5
27469
330
18
100
AcDbEntity
  8
0
100
AcDbLine
 10
-128.1145390729502
 20
-343.2309453897603
 30
0.0
 11
-106.0994845408135
 21
-343.2309453897603
 31
0.0
  0
LINE
  5
2746A
330
18
100
AcDbEntity
  8
0
100
AcDbLine
 10
-128.1145390729496
 20
-347.4309453897608
 30
0.0
 11
-106.0968560487492
 21
-347.4309453897608
 31
0.0
  0
ARC
  5
2746B
330
18
100
AcDbEntity
  8
0
100
AcDbCircle
 10
175.5110517694983
 20
-418.2309453897611
 30
0.0
 40
10.0
100
AcDbArc
 50
235.5769330705519
 51
270.0000000000016
  0
LINE
  5
2746C
330
18
100
AcDbEntity
  8
0
100
AcDbLine
 10
169.8580603368515
 20
-426.4798051814186
 30
0.0
 11
160.7068702175251
 21
-420.2084415445446
 31
0.0
  0
LINE
  5
2746D
330
18
100
AcDbEntity
  8
0
100
AcDbLine
 10
169.3348149707355
 20
-430.337477757402
 30
0.0
 11
158.7131290505084
 21
-423.0754006756844
 31
0.0
  0
LINE
  5
2746E
330
18
100
AcDbEntity
  8
0
100
AcDbLine
 10
169.8600160835274
 20
-429.9780987687212
 30
0.0
 11
158.8910986810859
 21
-437.4837920108006
 31
0.0
  0
ARC
  5
2746F
330
18
100
AcDbEntity
  8
0
100
AcDbCircle
 10
175.5071855204743
 20
-438.2309453897612
 30
0.0
 40
10.0
100
AcDbArc
 50
90.0
 51
124.3826376841612
  0
ARC
  5
27470
330
18
100
AcDbEntity
  8
0
100
AcDbCircle
 10
175.504557028409
 20
-442.4422663968478
 30
0.0
 40
10.0
100
AcDbArc
 50
90.00000000000161
 51
124.3551465832272
  0
LINE
  5
27471
330
18
100
AcDbEntity
  8
0
100
AcDbLine
 10
169.8613480415549
 20
-434.1867111562422
 30
0.0
 11
160.8041252958964
 21
-440.3779120270018
 31
0.0
  0
LINE
  5
27472
330
18
100
AcDbEntity
  8
0
100
AcDbLine
 10
183.2835601820002
 20
-432.4422663968475
 30
0.0
 11
175.504557028409
 21
-432.4422663968475
 31
0.0
  0
LINE
  5
27473
330
18
100
AcDbEntity
  8
0
100
AcDbLine
 10
183.2835601820002
 20
-428.2309453897608
 30
0.0
 11
175.507185520474
 21
-428.2309453897611
 31
0.0
  0
LINE
  5
274DB
330
18
100
AcDbEntity
  8
中心線
100
AcDbLine
 10
176.7728991945089
 20
-333.9938126922143
 30
0.0
 11
207.9613115430459
 21
-333.9938126922143
 31
0.0
  0
LINE
  5
274DD
330
18
100
AcDbEntity
  8
中心線
100
AcDbLine
 10
176.7728991945089
 20
-430.3309453897626
 30
0.0
 11
207.9613115430459
 21
-430.3309453897626
 31
0.0
  0
ARC
  5
27502
330
18
100
AcDbEntity
  8
0
100
AcDbCircle
 10
159.1377673879254
 20
-420.3915572332302
 30
0.0
 40
1.579751577084588
100
AcDbArc
 50
283.3436407292488
 51
6.65635927075117
  0
ARC
  5
27503
330
18
100
AcDbEntity
  8
0
100
AcDbCircle
 10
159.4511727491087
 20
-422.7383914283898
 30
0.0
 40
0.8113468640512493
100
AcDbArc
 50
86.38287215388027
 51
204.5426270966915
  0
ARC
  5
27504
330
18
100
AcDbEntity
  8
0
100
AcDbCircle
 10
161.0714625307875
 20
-421.7455451488618
 30
0.0
 40
1.579751577084588
100
AcDbArc
 50
103.3436407292485
 51
186.656359270751
  0
ARC
  5
27505
330
18
100
AcDbEntity
  8
0
100
AcDbCircle
 10
160.9887320895159
 20
-439.465725971686
 30
0.0
 40
0.9306788209492451
100
AcDbArc
 50
163.6676631650078
 51
258.5590942500075
  0
ARC
  5
27506
330
18
100
AcDbEntity
  8
0
100
AcDbCircle
 10
160.4602015106855
 20
-437.6669076994885
 30
0.0
 40
1.579751577084588
100
AcDbArc
 50
173.3436407292488
 51
256.6563592707511
  0
ARC
  5
27507
330
18
100
AcDbEntity
  8
0
100
AcDbCircle
 10
158.5265063678233
 20
-439.0208956151201
 30
0.0
 40
1.579751577084588
100
AcDbArc
 50
353.3436407292488
 51
76.65635927075119
  0
LINE
  5
27611
330
18
100
AcDbEntity
  8
0
100
AcDbLine
 10
29.94014639704733
 20
-645.7541992572676
 30
0.0
 11
118.6901463970477
 21
-645.7541992572676
 31
0.0
  0
LINE
  5
2762C
330
18
100
AcDbEntity
  8
0
100
AcDbLine
 10
-55.55985360295824
 20
-666.3541992572612
 30
0.0
 11
-55.55985360295562
 21
-647.3541992572612
 31
0.0
  0
ARC
  5
2762D
330
18
100
AcDbEntity
  8
0
100
AcDbCircle
 10
-54.55985360295564
 20
-647.3541992572616
 30
0.0
 40
1.0
100
AcDbArc
 50
89.99999999999202
 51
179.9999999999916
  0
LINE
  5
27631
330
18
100
AcDbEntity
  8
0
100
AcDbLine
 10
-57.55985360295312
 20
-646.854199257273
 30
0.0
 11
-60.5598536029529
 21
-646.854199257273
 31
0.0
  0
LINE
  5
27633
330
18
100
AcDbEntity
  8
0
100
AcDbLine
 10
-56.55985360295312
 20
-647.3541992572733
 30
0.0
 11
-57.55985360295312
 21
-647.3541992572733
 31
0.0
  0
CIRCLE
  5
2766C
102
{ACAD_REACTORS
330
27674
102
}
330
18
100
AcDbEntity
  8
細線
100
AcDbCircle
 10
29.94014639704733
 20
-297.3309453897627
 30
0.0
 40
0.8299999999999998
  0
ARC
  5
2766D
102
{ACAD_REACTORS
330
27674
102
}
330
18
100
AcDbEntity
  8
細線
100
AcDbCircle
 10
31.01948849022778
 20
-297.293253933324
 30
0.0
 40
0.5
100
AcDbArc
 50
134.346387662827
 51
229.6536123371663
  0
ARC
  5
2766E
102
{ACAD_REACTORS
330
27674
102
}
330
18
100
AcDbEntity
  8
細線
100
AcDbCircle
 10
30.44717568485634
 20
-296.377361989475
 30
0.0
 40
0.5
100
AcDbArc
 50
194.3463876628189
 51
289.6536123371926
  0
CIRCLE
  5
2766F
102
{ACAD_REACTORS
330
27674
102
}
330
18
100
AcDbEntity
  8
細線
100
AcDbCircle
 10
29.94014639704733
 20
-297.3309453897627
 30
0.0
 40
3.5
  0
ARC
  5
27670
102
{ACAD_REACTORS
330
27674
102
}
330
18
100
AcDbEntity
  8
細線
100
AcDbCircle
 10
29.36783359167542
 20
-296.4150534459138
 30
0.0
 40
0.5
100
AcDbArc
 50
254.3463876628286
 51
349.653612337181
  0
ARC
  5
27671
102
{ACAD_REACTORS
330
27674
102
}
330
18
100
AcDbEntity
  8
細線
100
AcDbCircle
 10
29.43311710923876
 20
-298.2845287900503
 30
0.0
 40
0.5
100
AcDbArc
 50
14.34638766281898
 51
109.6536123371927
  0
ARC
  5
27672
102
{ACAD_REACTORS
330
27674
102
}
330
18
100
AcDbEntity
  8
細線
100
AcDbCircle
 10
30.51245920241921
 20
-298.2468373336116
 30
0.0
 40
0.5
100
AcDbArc
 50
74.34638766282863
 51
169.6536123371812
  0
ARC
  5
27673
102
{ACAD_REACTORS
330
27674
102
}
330
18
100
AcDbEntity
  8
細線
100
AcDbCircle
 10
28.86080430386687
 20
-297.3686368462015
 30
0.0
 40
0.5
100
AcDbArc
 50
314.346387662827
 51
49.65361233716633
  0
CIRCLE
  5
27676
102
{ACAD_REACTORS
330
2767E
102
}
330
18
100
AcDbEntity
  8
細線
100
AcDbCircle
 10
-30.1639300038089
 20
-322.2268689889058
 30
0.0
 40
3.5
  0
ARC
  5
27677
102
{ACAD_REACTORS
330
2767E
102
}
330
18
100
AcDbEntity
  8
細線
100
AcDbCircle
 10
-29.84816856270822
 20
-323.2596781253458
 30
0.0
 40
0.5
100
AcDbArc
 50
59.34638766281899
 51
154.6536123371927
  0
ARC
  5
27678
102
{ACAD_REACTORS
330
2767E
102
}
330
18
100
AcDbEntity
  8
細線
100
AcDbCircle
 10
-31.21624967377693
 20
-321.9839218502146
 30
0.0
 40
0.5
100
AcDbArc
 50
299.3463876628286
 51
34.6536123371812
  0
CIRCLE
  5
27679
102
{ACAD_REACTORS
330
2767E
102
}
330
18
100
AcDbEntity
  8
細線
100
AcDbCircle
 10
-30.1639300038089
 20
-322.2268689889058
 30
0.0
 40
0.8299999999999998
  0
ARC
  5
2767A
102
{ACAD_REACTORS
330
2767E
102
}
330
18
100
AcDbEntity
  8
細線
100
AcDbCircle
 10
-30.90048823267613
 20
-323.0167309866545
 30
0.0
 40
0.5
100
AcDbArc
 50
359.346387662827
 51
94.65361233716631
  0
ARC
  5
2767B
102
{ACAD_REACTORS
330
2767E
102
}
330
18
100
AcDbEntity
  8
細線
100
AcDbCircle
 10
-29.11161033384075
 20
-322.4698161275973
 30
0.0
 40
0.5
100
AcDbArc
 50
119.3463876628286
 51
214.6536123371812
  0
ARC
  5
2767C
102
{ACAD_REACTORS
330
2767E
102
}
330
18
100
AcDbEntity
  8
細線
100
AcDbCircle
 10
-30.47969144490922
 20
-321.1940598524656
 30
0.0
 40
0.5
100
AcDbArc
 50
239.346387662819
 51
334.6536123371926
  0
ARC
  5
2767D
102
{ACAD_REACTORS
330
2767E
102
}
330
18
100
AcDbEntity
  8
細線
100
AcDbCircle
 10
-29.42737177494143
 20
-321.4370069911574
 30
0.0
 40
0.5
100
AcDbArc
 50
179.346387662827
 51
274.6536123371663
  0
CIRCLE
  5
2767F
102
{ACAD_REACTORS
330
27687
102
}
330
18
100
AcDbEntity
  8
細線
100
AcDbCircle
 10
-55.05985360295209
 20
-382.3309453897621
 30
0.0
 40
3.5
  0
ARC
  5
27680
102
{ACAD_REACTORS
330
27687
102
}
330
18
100
AcDbEntity
  8
細線
100
AcDbCircle
 10
-54.10627020266453
 20
-382.8379746775707
 30
0.0
 40
0.5
100
AcDbArc
 50
104.3463876628189
 51
199.6536123371926
  0
ARC
  5
27681
102
{ACAD_REACTORS
330
27687
102
}
330
18
100
AcDbEntity
  8
細線
100
AcDbCircle
 10
-55.97574554680102
 20
-382.9032581951338
 30
0.0
 40
0.5
100
AcDbArc
 50
344.3463876628285
 51
79.6536123371812
  0
CIRCLE
  5
27682
102
{ACAD_REACTORS
330
27687
102
}
330
18
100
AcDbEntity
  8
細線
100
AcDbCircle
 10
-55.05985360295209
 20
-382.3309453897621
 30
0.0
 40
0.8299999999999998
  0
ARC
  5
27683
102
{ACAD_REACTORS
330
27687
102
}
330
18
100
AcDbEntity
  8
細線
100
AcDbCircle
 10
-55.02216214651332
 20
-383.4102874829426
 30
0.0
 40
0.5
100
AcDbArc
 50
44.34638766282707
 51
139.6536123371662
  0
ARC
  5
27684
102
{ACAD_REACTORS
330
27687
102
}
330
18
100
AcDbEntity
  8
細線
100
AcDbCircle
 10
-54.14396165910318
 20
-381.7586325843901
 30
0.0
 40
0.5
100
AcDbArc
 50
164.3463876628285
 51
259.653612337181
  0
ARC
  5
27685
102
{ACAD_REACTORS
330
27687
102
}
330
18
100
AcDbEntity
  8
細線
100
AcDbCircle
 10
-56.0134370032398
 20
-381.8239161019531
 30
0.0
 40
0.5
100
AcDbArc
 50
284.3463876628188
 51
19.65361233719267
  0
ARC
  5
27686
102
{ACAD_REACTORS
330
27687
102
}
330
18
100
AcDbEntity
  8
細線
100
AcDbCircle
 10
-55.09754505939078
 20
-381.2516032965816
 30
0.0
 40
0.5
100
AcDbArc
 50
224.346387662827
 51
319.6536123371663
  0
CIRCLE
  5
27688
102
{ACAD_REACTORS
330
27690
102
}
330
18
100
AcDbEntity
  8
細線
100
AcDbCircle
 10
-30.1639300038089
 20
-442.4350217906183
 30
0.0
 40
3.5
  0
ARC
  5
27689
102
{ACAD_REACTORS
330
27690
102
}
330
18
100
AcDbEntity
  8
細線
100
AcDbCircle
 10
-29.13112086736896
 20
-442.1192603495176
 30
0.0
 40
0.5
100
AcDbArc
 50
149.3463876628188
 51
244.6536123371927
  0
ARC
  5
2768A
102
{ACAD_REACTORS
330
27690
102
}
330
18
100
AcDbEntity
  8
細線
100
AcDbCircle
 10
-30.40687714250021
 20
-443.4873414605863
 30
0.0
 40
0.5
100
AcDbArc
 50
29.34638766282855
 51
124.6536123371811
  0
CIRCLE
  5
2768B
102
{ACAD_REACTORS
330
27690
102
}
330
18
100
AcDbEntity
  8
細線
100
AcDbCircle
 10
-30.1639300038089
 20
-442.4350217906183
 30
0.0
 40
0.8299999999999998
  0
ARC
  5
2768C
102
{ACAD_REACTORS
330
27690
102
}
330
18
100
AcDbEntity
  8
細線
100
AcDbCircle
 10
-29.37406800606026
 20
-443.1715800194856
 30
0.0
 40
0.5
100
AcDbArc
 50
89.34638766282708
 51
184.6536123371663
  0
ARC
  5
2768D
102
{ACAD_REACTORS
330
27690
102
}
330
18
100
AcDbEntity
  8
細線
100
AcDbCircle
 10
-29.92098286511748
 20
-441.38270212065
 30
0.0
 40
0.5
100
AcDbArc
 50
209.3463876628284
 51
304.6536123371812
  0
ARC
  5
2768E
102
{ACAD_REACTORS
330
27690
102
}
330
18
100
AcDbEntity
  8
細線
100
AcDbCircle
 10
-31.19673914024918
 20
-442.7507832317187
 30
0.0
 40
0.5
100
AcDbArc
 50
329.346387662819
 51
64.65361233719268
  0
ARC
  5
2768F
102
{ACAD_REACTORS
330
27690
102
}
330
18
100
AcDbEntity
  8
細線
100
AcDbCircle
 10
-30.95379200155742
 20
-441.6984635617508
 30
0.0
 40
0.5
100
AcDbArc
 50
269.3463876628269
 51
4.653612337166278
  0
CIRCLE
  5
27691
102
{ACAD_REACTORS
330
27699
102
}
330
18
100
AcDbEntity
  8
細線
100
AcDbCircle
 10
29.94014639704727
 20
-467.3309453897616
 30
0.0
 40
3.5
  0
ARC
  5
27692
102
{ACAD_REACTORS
330
27699
102
}
330
18
100
AcDbEntity
  8
細線
100
AcDbCircle
 10
30.44717568485582
 20
-466.3773619894739
 30
0.0
 40
0.5
100
AcDbArc
 50
194.3463876628189
 51
289.6536123371926
  0
ARC
  5
27693
102
{ACAD_REACTORS
330
27699
102
}
330
18
100
AcDbEntity
  8
細線
100
AcDbCircle
 10
30.51245920241916
 20
-468.2468373336105
 30
0.0
 40
0.5
100
AcDbArc
 50
74.34638766282866
 51
169.6536123371811
  0
CIRCLE
  5
27694
102
{ACAD_REACTORS
330
27699
102
}
330
18
100
AcDbEntity
  8
細線
100
AcDbCircle
 10
29.94014639704727
 20
-467.3309453897616
 30
0.0
 40
0.8299999999999998
  0
ARC
  5
27695
102
{ACAD_REACTORS
330
27699
102
}
330
18
100
AcDbEntity
  8
細線
100
AcDbCircle
 10
31.01948849022773
 20
-467.2932539333228
 30
0.0
 40
0.5
100
AcDbArc
 50
134.346387662827
 51
229.6536123371663
  0
ARC
  5
27696
102
{ACAD_REACTORS
330
27699
102
}
330
18
100
AcDbEntity
  8
細線
100
AcDbCircle
 10
29.36783359167538
 20
-466.4150534459126
 30
0.0
 40
0.5
100
AcDbArc
 50
254.3463876628286
 51
349.653612337181
  0
ARC
  5
27697
102
{ACAD_REACTORS
330
27699
102
}
330
18
100
AcDbEntity
  8
細線
100
AcDbCircle
 10
29.43311710923824
 20
-468.2845287900493
 30
0.0
 40
0.5
100
AcDbArc
 50
14.34638766281902
 51
109.6536123371925
  0
ARC
  5
27698
102
{ACAD_REACTORS
330
27699
102
}
330
18
100
AcDbEntity
  8
細線
100
AcDbCircle
 10
28.86080430386681
 20
-467.3686368462003
 30
0.0
 40
0.5
100
AcDbArc
 50
314.346387662827
 51
49.65361233716635
  0
CIRCLE
  5
2769A
102
{ACAD_REACTORS
330
276A2
102
}
330
18
100
AcDbEntity
  8
細線
100
AcDbCircle
 10
90.04422279790356
 20
-442.4350217906183
 30
0.0
 40
3.5
  0
ARC
  5
2769B
102
{ACAD_REACTORS
330
276A2
102
}
330
18
100
AcDbEntity
  8
細線
100
AcDbCircle
 10
89.72846135680288
 20
-441.4022126541785
 30
0.0
 40
0.5
100
AcDbArc
 50
239.3463876628188
 51
334.6536123371926
  0
ARC
  5
2769C
102
{ACAD_REACTORS
330
276A2
102
}
330
18
100
AcDbEntity
  8
細線
100
AcDbCircle
 10
91.09654246787156
 20
-442.6779689293097
 30
0.0
 40
0.5
100
AcDbArc
 50
119.3463876628285
 51
214.6536123371811
  0
CIRCLE
  5
2769D
102
{ACAD_REACTORS
330
276A2
102
}
330
18
100
AcDbEntity
  8
細線
100
AcDbCircle
 10
90.04422279790356
 20
-442.4350217906183
 30
0.0
 40
0.8299999999999998
  0
ARC
  5
2769E
102
{ACAD_REACTORS
330
276A2
102
}
330
18
100
AcDbEntity
  8
細線
100
AcDbCircle
 10
90.7807810267708
 20
-441.6451597928698
 30
0.0
 40
0.5
100
AcDbArc
 50
179.346387662827
 51
274.6536123371661
  0
ARC
  5
2769F
102
{ACAD_REACTORS
330
276A2
102
}
330
18
100
AcDbEntity
  8
細線
100
AcDbCircle
 10
88.99190312793541
 20
-442.1920746519268
 30
0.0
 40
0.5
100
AcDbArc
 50
299.3463876628286
 51
34.6536123371812
  0
ARC
  5
276A0
102
{ACAD_REACTORS
330
276A2
102
}
330
18
100
AcDbEntity
  8
細線
100
AcDbCircle
 10
90.35998423900394
 20
-443.4678309270586
 30
0.0
 40
0.5
100
AcDbArc
 50
59.346387662819
 51
154.6536123371927
  0
ARC
  5
276A1
102
{ACAD_REACTORS
330
276A2
102
}
330
18
100
AcDbEntity
  8
細線
100
AcDbCircle
 10
89.3076645690361
 20
-443.2248837883666
 30
0.0
 40
0.5
100
AcDbArc
 50
359.346387662827
 51
94.65361233716629
  0
CIRCLE
  5
276A3
102
{ACAD_REACTORS
330
276AB
102
}
330
18
100
AcDbEntity
  8
細線
100
AcDbCircle
 10
114.9401463970467
 20
-382.3309453897623
 30
0.0
 40
3.5
  0
ARC
  5
276A4
102
{ACAD_REACTORS
330
276AB
102
}
330
18
100
AcDbEntity
  8
細線
100
AcDbCircle
 10
113.9865629967589
 20
-381.8239161019537
 30
0.0
 40
0.5
100
AcDbArc
 50
284.3463876628188
 51
19.65361233719267
  0
ARC
  5
276A5
102
{ACAD_REACTORS
330
276AB
102
}
330
18
100
AcDbEntity
  8
細線
100
AcDbCircle
 10
115.8560383408957
 20
-381.7586325843904
 30
0.0
 40
0.5
100
AcDbArc
 50
164.3463876628285
 51
259.653612337181
  0
CIRCLE
  5
276A6
102
{ACAD_REACTORS
330
276AB
102
}
330
18
100
AcDbEntity
  8
細線
100
AcDbCircle
 10
114.9401463970467
 20
-382.3309453897623
 30
0.0
 40
0.8299999999999998
  0
ARC
  5
276A7
102
{ACAD_REACTORS
330
276AB
102
}
330
18
100
AcDbEntity
  8
細線
100
AcDbCircle
 10
114.902454940608
 20
-381.2516032965816
 30
0.0
 40
0.5
100
AcDbArc
 50
224.346387662827
 51
319.6536123371663
  0
ARC
  5
276A8
102
{ACAD_REACTORS
330
276AB
102
}
330
18
100
AcDbEntity
  8
細線
100
AcDbCircle
 10
114.0242544531979
 20
-382.9032581951341
 30
0.0
 40
0.5
100
AcDbArc
 50
344.3463876628285
 51
79.65361233718116
  0
ARC
  5
276A9
102
{ACAD_REACTORS
330
276AB
102
}
330
18
100
AcDbEntity
  8
細線
100
AcDbCircle
 10
115.8937297973344
 20
-382.8379746775713
 30
0.0
 40
0.5
100
AcDbArc
 50
104.3463876628189
 51
199.6536123371926
  0
ARC
  5
276AA
102
{ACAD_REACTORS
330
276AB
102
}
330
18
100
AcDbEntity
  8
細線
100
AcDbCircle
 10
114.9778378534854
 20
-383.4102874829426
 30
0.0
 40
0.5
100
AcDbArc
 50
44.346387662827
 51
139.6536123371662
  0
CIRCLE
  5
276AC
102
{ACAD_REACTORS
330
276B4
102
}
330
18
100
AcDbEntity
  8
細線
100
AcDbCircle
 10
90.04422279790361
 20
-322.2268689889062
 30
0.0
 40
3.5
  0
ARC
  5
276AD
102
{ACAD_REACTORS
330
276B4
102
}
330
18
100
AcDbEntity
  8
細線
100
AcDbCircle
 10
89.01141366146374
 20
-322.5426304300068
 30
0.0
 40
0.5
100
AcDbArc
 50
329.3463876628188
 51
64.65361233719268
  0
ARC
  5
276AE
102
{ACAD_REACTORS
330
276B4
102
}
330
18
100
AcDbEntity
  8
細線
100
AcDbCircle
 10
90.28716993659498
 20
-321.1745493189378
 30
0.0
 40
0.5
100
AcDbArc
 50
209.3463876628284
 51
304.6536123371811
  0
CIRCLE
  5
276AF
102
{ACAD_REACTORS
330
276B4
102
}
330
18
100
AcDbEntity
  8
細線
100
AcDbCircle
 10
90.04422279790361
 20
-322.2268689889062
 30
0.0
 40
0.8299999999999998
  0
ARC
  5
276B0
102
{ACAD_REACTORS
330
276B4
102
}
330
18
100
AcDbEntity
  8
細線
100
AcDbCircle
 10
89.25436080015499
 20
-321.4903107600386
 30
0.0
 40
0.5
100
AcDbArc
 50
269.3463876628269
 51
4.653612337166268
  0
ARC
  5
276B1
102
{ACAD_REACTORS
330
276B4
102
}
330
18
100
AcDbEntity
  8
細線
100
AcDbCircle
 10
89.80127565921225
 20
-323.2791886588742
 30
0.0
 40
0.5
100
AcDbArc
 50
29.34638766282855
 51
124.6536123371811
  0
ARC
  5
276B2
102
{ACAD_REACTORS
330
276B4
102
}
330
18
100
AcDbEntity
  8
細線
100
AcDbCircle
 10
91.07703193434387
 20
-321.9111075478056
 30
0.0
 40
0.5
100
AcDbArc
 50
149.3463876628188
 51
244.6536123371926
  0
ARC
  5
276B3
102
{ACAD_REACTORS
330
276B4
102
}
330
18
100
AcDbEntity
  8
細線
100
AcDbCircle
 10
90.83408479565219
 20
-322.9634272177736
 30
0.0
 40
0.5
100
AcDbArc
 50
89.346387662827
 51
184.6536123371661
  0
CIRCLE
  5
35A3E
102
{ACAD_REACTORS
330
35A46
102
}
330
18
100
AcDbEntity
  8
細線
100
AcDbCircle
 10
269.9952297232808
 20
-342.7840073525991
 30
0.0
 40
3.5
  0
ARC
  5
35A3F
102
{ACAD_REACTORS
330
35A46
102
}
330
18
100
AcDbEntity
  8
細線
100
AcDbCircle
 10
269.4229169179092
 20
-343.6998992964479
 30
0.0
 40
0.5
100
AcDbArc
 50
10.34638766281898
 51
105.6536123371927
  0
ARC
  5
35A40
102
{ACAD_REACTORS
330
35A46
102
}
330
18
100
AcDbEntity
  8
細線
100
AcDbCircle
 10
269.4882004354719
 20
-341.8304239523115
 30
0.0
 40
0.5
100
AcDbArc
 50
250.3463876628285
 51
345.6536123371812
  0
CIRCLE
  5
35A41
102
{ACAD_REACTORS
330
35A46
102
}
330
18
100
AcDbEntity
  8
細線
100
AcDbCircle
 10
269.9952297232808
 20
-342.7840073525991
 30
0.0
 40
0.8299999999999998
  0
ARC
  5
35A42
102
{ACAD_REACTORS
330
35A46
102
}
330
18
100
AcDbEntity
  8
細線
100
AcDbCircle
 10
268.9158876301003
 20
-342.7463158961605
 30
0.0
 40
0.5
100
AcDbArc
 50
310.346387662827
 51
45.65361233716632
  0
ARC
  5
35A43
102
{ACAD_REACTORS
330
35A46
102
}
330
18
100
AcDbEntity
  8
細線
100
AcDbCircle
 10
270.5022590110896
 20
-343.7375907528866
 30
0.0
 40
0.5
100
AcDbArc
 50
70.3463876628286
 51
165.6536123371808
  0
ARC
  5
35A44
102
{ACAD_REACTORS
330
35A46
102
}
330
18
100
AcDbEntity
  8
細線
100
AcDbCircle
 10
270.567542528653
 20
-341.8681154087501
 30
0.0
 40
0.5
100
AcDbArc
 50
190.3463876628189
 51
285.6536123371926
  0
ARC
  5
35A45
102
{ACAD_REACTORS
330
35A46
102
}
330
18
100
AcDbEntity
  8
細線
100
AcDbCircle
 10
271.0745718164611
 20
-342.8216988090377
 30
0.0
 40
0.5
100
AcDbArc
 50
130.346387662827
 51
225.6536123371663
  0
LINE
  5
35A78
102
{ACAD_REACTORS
330
35A96
330
35A97
330
35A98
102
}
330
18
100
AcDbEntity
  8
0
100
AcDbLine
 10
29.94014639704733
 20
-666.3541992572677
 30
0.0
 11
116.440146397048
 21
-666.3541992572677
 31
0.0
  0
LINE
  5
35A79
102
{ACAD_REACTORS
330
35A96
330
35A97
330
35A98
102
}
330
18
100
AcDbEntity
  8
0
100
AcDbLine
 10
117.9901463970471
 20
-626.6541992572672
 30
0.0
 11
116.387364348159
 21
-626.6541992572672
 31
0.0
  0
LINE
  5
35A7B
102
{ACAD_REACTORS
330
35A96
330
35A97
330
35A98
102
}
330
18
100
AcDbEntity
  8
0
100
AcDbLine
 10
116.4401463970476
 20
-666.3541992572677
 30
0.0
 11
29.94014639704733
 21
-666.3541992572677
 31
0.0
  0
LINE
  5
35A7C
102
{ACAD_REACTORS
330
35A96
330
35A97
330
35A98
102
}
330
18
100
AcDbEntity
  8
0
100
AcDbLine
 10
116.4401463970477
 20
-657.7541992572677
 30
0.0
 11
116.4401463970476
 21
-666.3541992572677
 31
0.0
  0
LINE
  5
35A7D
102
{ACAD_REACTORS
330
35A96
330
35A97
330
35A98
102
}
330
18
100
AcDbEntity
  8
0
100
AcDbLine
 10
118.6901463970474
 20
-627.3541992572672
 30
0.0
 11
118.6901463970472
 21
-645.7541992572672
 31
0.0
  0
LINE
  5
35A7E
102
{ACAD_REACTORS
330
35A96
330
35A97
330
35A98
102
}
330
18
100
AcDbEntity
  8
0
100
AcDbLine
 10
117.9901463970471
 20
-626.6541992572672
 30
0.0
 11
118.6901463970474
 21
-627.3541992572677
 31
0.0
  0
LINE
  5
35A7F
102
{ACAD_REACTORS
330
35A96
330
35A97
102
}
330
18
100
AcDbEntity
  8
中心線
100
AcDbLine
 10
29.94015110352552
 20
-667.9535332836297
 30
0.0
 11
29.94015110352552
 21
-663.6672548317209
 31
0.0
  0
LINE
  5
35A80
102
{ACAD_REACTORS
330
35A97
330
35A9A
330
35A9B
330
35A9C
102
}
330
18
100
AcDbEntity
  8
0
100
AcDbLine
 10
118.440146397047
 20
-626.1541992572674
 30
0.0
 11
111.4401463970471
 21
-626.1541992572678
 31
0.0
  0
LINE
  5
35A81
102
{ACAD_REACTORS
330
35A97
330
35A9A
330
35A9B
330
35A9C
102
}
330
18
100
AcDbEntity
  8
0
100
AcDbLine
 10
117.3901463970469
 20
-625.3541992572677
 30
0.0
 11
112.4901463970471
 21
-625.3541992572682
 31
0.0
  0
LINE
  5
35A82
102
{ACAD_REACTORS
330
35A97
330
35A9A
330
35A9B
330
35A9C
102
}
330
18
100
AcDbEntity
  8
0
100
AcDbLine
 10
118.440146397047
 20
-625.6541992572678
 30
0.0
 11
111.4401463970471
 21
-625.6541992572683
 31
0.0
  0
LINE
  5
35A83
102
{ACAD_REACTORS
330
35A97
330
35A99
102
}
330
18
100
AcDbEntity
  8
0
100
AcDbLine
 10
118.4401463970474
 20
-626.1541992572674
 30
0.0
 11
29.94014639704733
 21
-626.1541992572747
 31
0.0
  0
LINE
  5
35A84
102
{ACAD_REACTORS
330
35A97
330
35A99
102
}
330
18
100
AcDbEntity
  8
0
100
AcDbLine
 10
118.4401463970474
 20
-626.6541992572672
 30
0.0
 11
29.94014639704733
 21
-626.6541992572672
 31
0.0
  0
LINE
  5
35A85
102
{ACAD_REACTORS
330
35A97
330
35A9A
330
35A9B
330
35A9C
102
}
330
18
100
AcDbEntity
  8
0
100
AcDbLine
 10
111.4401463970471
 20
-625.6541992572683
 30
0.0
 11
111.4401463970471
 21
-626.1541992572678
 31
0.0
  0
LINE
  5
35A86
102
{ACAD_REACTORS
330
35A97
330
35A9A
330
35A9B
330
35A9C
102
}
330
18
100
AcDbEntity
  8
0
100
AcDbLine
 10
111.4401463970471
 20
-625.6541992572683
 30
0.0
 11
112.4901463970471
 21
-625.3541992572682
 31
0.0
  0
LINE
  5
35A87
102
{ACAD_REACTORS
330
35A97
330
35A99
102
}
330
18
100
AcDbEntity
  8
中心線
100
AcDbLine
 10
114.9401463970475
 20
-628.200842834854
 30
0.0
 11
114.9401463970475
 21
-624.6528615237516
 31
0.0
  0
LINE
  5
35A91
102
{ACAD_REACTORS
330
35A97
330
35A9A
330
35A9B
330
35A9C
102
}
330
18
100
AcDbEntity
  8
0
100
AcDbLine
 10
118.440146397047
 20
-625.6541992572678
 30
0.0
 11
117.3901463970469
 21
-625.3541992572677
 31
0.0
  0
LINE
  5
35A92
102
{ACAD_REACTORS
330
35A97
330
35A9A
330
35A9B
330
35A9C
102
}
330
18
100
AcDbEntity
  8
0
100
AcDbLine
 10
118.440146397047
 20
-625.6541992572678
 30
0.0
 11
118.440146397047
 21
-626.1541992572674
 31
0.0
  0
LINE
  5
35A95
102
{ACAD_REACTORS
330
35A97
330
35A99
102
}
330
18
100
AcDbEntity
  8
0
100
AcDbLine
 10
118.4401463970474
 20
-626.1541992572674
 30
0.0
 11
118.4401463970474
 21
-626.6541992572672
 31
0.0
  0
LINE
  5
361BC
102
{ACAD_REACTORS
330
361CF
330
361D1
330
361D2
330
361D3
102
}
330
18
100
AcDbEntity
  8
0
100
AcDbLine
 10
-57.50985360295226
 20
-625.3541992572677
 30
0.0
 11
-52.60985360295261
 21
-625.3541992572682
 31
0.0
  0
LINE
  5
361BD
102
{ACAD_REACTORS
330
361CF
330
361D1
330
361D2
330
361D3
102
}
330
18
100
AcDbEntity
  8
0
100
AcDbLine
 10
-58.55985360295244
 20
-626.1541992572674
 30
0.0
 11
-51.55985360295244
 21
-626.1541992572678
 31
0.0
  0
LINE
  5
361BE
102
{ACAD_REACTORS
330
361CF
330
361D1
330
361D2
330
361D3
102
}
330
18
100
AcDbEntity
  8
0
100
AcDbLine
 10
-58.55985360295244
 20
-625.6541992572678
 30
0.0
 11
-51.55985360295244
 21
-625.6541992572683
 31
0.0
  0
LINE
  5
361BF
102
{ACAD_REACTORS
330
361CF
330
361D4
102
}
330
18
100
AcDbEntity
  8
0
100
AcDbLine
 10
-58.5598536029529
 20
-626.1541992572674
 30
0.0
 11
29.94014639704733
 21
-626.1541992572747
 31
0.0
  0
LINE
  5
361C0
102
{ACAD_REACTORS
330
361CF
330
361D4
102
}
330
18
100
AcDbEntity
  8
0
100
AcDbLine
 10
-58.5598536029529
 20
-626.6541992572672
 30
0.0
 11
29.94014639704733
 21
-626.6541992572672
 31
0.0
  0
LINE
  5
361C1
102
{ACAD_REACTORS
330
361CF
330
361D1
330
361D2
330
361D3
102
}
330
18
100
AcDbEntity
  8
0
100
AcDbLine
 10
-51.55985360295244
 20
-625.6541992572683
 30
0.0
 11
-51.55985360295244
 21
-626.1541992572678
 31
0.0
  0
LINE
  5
361C2
102
{ACAD_REACTORS
330
361CF
330
361D1
330
361D2
330
361D3
102
}
330
18
100
AcDbEntity
  8
0
100
AcDbLine
 10
-51.55985360295244
 20
-625.6541992572683
 30
0.0
 11
-52.60985360295261
 21
-625.3541992572682
 31
0.0
  0
LINE
  5
361C3
102
{ACAD_REACTORS
330
361CE
330
361CF
330
361D0
102
}
330
18
100
AcDbEntity
  8
0
100
AcDbLine
 10
-58.8098536029529
 20
-627.3541992572672
 30
0.0
 11
-58.80985360295267
 21
-645.7541992572672
 31
0.0
  0
LINE
  5
361C4
102
{ACAD_REACTORS
330
361CF
330
361D4
102
}
330
18
100
AcDbEntity
  8
中心線
100
AcDbLine
 10
-55.0598536029529
 20
-628.200842834854
 30
0.0
 11
-55.0598536029529
 21
-624.6528615237516
 31
0.0
  0
LINE
  5
361C5
102
{ACAD_REACTORS
330
361CE
330
361CF
330
361D0
102
}
330
18
100
AcDbEntity
  8
0
100
AcDbLine
 10
-58.10985360295261
 20
-626.6541992572672
 30
0.0
 11
-56.5070715540644
 21
-626.6541992572672
 31
0.0
  0
LINE
  5
361C6
102
{ACAD_REACTORS
330
361CE
330
361CF
330
361D0
102
}
330
18
100
AcDbEntity
  8
0
100
AcDbLine
 10
-58.10985360295261
 20
-626.6541992572672
 30
0.0
 11
-58.8098536029529
 21
-627.3541992572677
 31
0.0
  0
LINE
  5
361C7
102
{ACAD_REACTORS
330
361CF
330
361D1
330
361D2
330
361D3
102
}
330
18
100
AcDbEntity
  8
0
100
AcDbLine
 10
-58.55985360295244
 20
-625.6541992572678
 30
0.0
 11
-57.50985360295226
 21
-625.3541992572677
 31
0.0
  0
LINE
  5
361C8
102
{ACAD_REACTORS
330
361CF
330
361D1
330
361D2
330
361D3
102
}
330
18
100
AcDbEntity
  8
0
100
AcDbLine
 10
-58.55985360295244
 20
-625.6541992572678
 30
0.0
 11
-58.55985360295244
 21
-626.1541992572674
 31
0.0
  0
LINE
  5
361C9
102
{ACAD_REACTORS
330
361CF
330
361D4
102
}
330
18
100
AcDbEntity
  8
0
100
AcDbLine
 10
-58.5598536029529
 20
-626.1541992572674
 30
0.0
 11
-58.5598536029529
 21
-626.6541992572672
 31
0.0
  0
LINE
  5
361CA
102
{ACAD_REACTORS
330
361CE
330
361CF
330
361D0
102
}
330
18
100
AcDbEntity
  8
0
100
AcDbLine
 10
-56.559853602953
 20
-666.3541992572677
 30
0.0
 11
29.94014639704733
 21
-666.3541992572677
 31
0.0
  0
LINE
  5
361CB
102
{ACAD_REACTORS
330
361CE
330
361CF
330
361D0
102
}
330
18
100
AcDbEntity
  8
0
100
AcDbLine
 10
29.94014639704733
 20
-666.3541992572677
 30
0.0
 11
-56.55985360295336
 21
-666.3541992572677
 31
0.0
  0
LINE
  5
361CC
102
{ACAD_REACTORS
330
361CE
330
361CF
330
361D0
102
}
330
18
100
AcDbEntity
  8
0
100
AcDbLine
 10
-56.55985360295312
 20
-657.7541992572677
 30
0.0
 11
-56.559853602953
 21
-666.3541992572677
 31
0.0
  0
LINE
  5
361CD
102
{ACAD_REACTORS
330
361CE
330
361CF
102
}
330
18
100
AcDbEntity
  8
中心線
100
AcDbLine
 10
29.94014169056912
 20
-667.9535332836297
 30
0.0
 11
29.94014169056912
 21
-663.6672548317209
 31
0.0
  0
LINE
  5
3656E
330
18
100
AcDbEntity
  8
0
100
AcDbLine
 10
-47.80779864898202
 20
-640.7541992572681
 30
0.0
 11
-56.18274857120951
 21
-640.7541992572681
 31
0.0
  0
LINE
  5
3656F
330
18
100
AcDbEntity
  8
0
100
AcDbLine
 10
-47.80779864898202
 20
-633.5541992572678
 30
0.0
 11
-56.18274857120951
 21
-633.5541992572678
 31
0.0
  0
LINE
  5
36570
330
18
100
AcDbEntity
  8
0
100
AcDbLine
 10
-57.41397800073315
 20
-640.7541992572681
 30
0.0
 11
-58.80985830943092
 21
-640.7541992572681
 31
0.0
  0
LINE
  5
36571
330
18
100
AcDbEntity
  8
0
100
AcDbLine
 10
-57.41397800073315
 20
-633.554199257268
 30
0.0
 11
-58.809858309431
 21
-633.554199257268
 31
0.0
  0
LINE
  5
36572
330
18
100
AcDbEntity
  8
0
100
AcDbLine
 10
-57.41397800073315
 20
-633.554199257268
 30
0.0
 11
-57.41397800073315
 21
-640.7541992572681
 31
0.0
  0
LINE
  5
36573
330
18
100
AcDbEntity
  8
0
100
AcDbLine
 10
-56.18274857120951
 20
-633.554199257268
 30
0.0
 11
-56.18274857120947
 21
-640.7541992572681
 31
0.0
  0
LINE
  5
36574
330
18
100
AcDbEntity
  8
0
100
AcDbLine
 10
-47.80779864898202
 20
-633.5541992572678
 30
0.0
 11
-47.80779864898202
 21
-640.7541992572681
 31
0.0
  0
CIRCLE
  5
36770
102
{ACAD_REACTORS
330
36778
102
}
330
18
100
AcDbEntity
  8
細線
100
AcDbCircle
 10
264.6790724292876
 20
-418.8085985821834
 30
0.0
 40
3.5
  0
ARC
  5
36771
102
{ACAD_REACTORS
330
36778
102
}
330
18
100
AcDbEntity
  8
細線
100
AcDbCircle
 10
265.758414522468
 20
-418.846290038622
 30
0.0
 40
0.5
100
AcDbArc
 50
130.3463876628186
 51
225.6536123371926
  0
ARC
  5
36772
102
{ACAD_REACTORS
330
36778
102
}
330
18
100
AcDbEntity
  8
細線
100
AcDbCircle
 10
264.1067596239158
 20
-419.7244905260324
 30
0.0
 40
0.5
100
AcDbArc
 50
10.34638766282863
 51
105.653612337181
  0
CIRCLE
  5
36773
102
{ACAD_REACTORS
330
36778
102
}
330
18
100
AcDbEntity
  8
細線
100
AcDbCircle
 10
264.6790724292876
 20
-418.8085985821834
 30
0.0
 40
0.8299999999999998
  0
ARC
  5
36774
102
{ACAD_REACTORS
330
36778
102
}
330
18
100
AcDbEntity
  8
細線
100
AcDbCircle
 10
265.1861017170964
 20
-419.7621819824708
 30
0.0
 40
0.5
100
AcDbArc
 50
70.34638766282707
 51
165.6536123371663
  0
ARC
  5
36775
102
{ACAD_REACTORS
330
36778
102
}
330
18
100
AcDbEntity
  8
細線
100
AcDbCircle
 10
265.2513852346594
 20
-417.8927066383343
 30
0.0
 40
0.5
100
AcDbArc
 50
190.3463876628284
 51
285.6536123371812
  0
ARC
  5
36776
102
{ACAD_REACTORS
330
36778
102
}
330
18
100
AcDbEntity
  8
細線
100
AcDbCircle
 10
263.5997303361067
 20
-418.7709071257443
 30
0.0
 40
0.5
100
AcDbArc
 50
310.346387662819
 51
45.65361233719275
  0
ARC
  5
36777
102
{ACAD_REACTORS
330
36778
102
}
330
18
100
AcDbEntity
  8
細線
100
AcDbCircle
 10
264.1720431414788
 20
-417.8550151818958
 30
0.0
 40
0.5
100
AcDbArc
 50
250.346387662827
 51
345.6536123371662
  0
CIRCLE
  5
36779
102
{ACAD_REACTORS
330
36781
102
}
330
18
100
AcDbEntity
  8
細線
100
AcDbCircle
 10
333.176378393432
 20
-385.4002302345034
 30
0.0
 40
3.5
  0
ARC
  5
3677A
102
{ACAD_REACTORS
330
36781
102
}
330
18
100
AcDbEntity
  8
細線
100
AcDbCircle
 10
332.6693491056231
 20
-384.4466468342157
 30
0.0
 40
0.5
100
AcDbArc
 50
250.346387662819
 51
345.6536123371926
  0
ARC
  5
3677B
102
{ACAD_REACTORS
330
36781
102
}
330
18
100
AcDbEntity
  8
細線
100
AcDbCircle
 10
334.2557204866126
 20
-385.4379216909418
 30
0.0
 40
0.5
100
AcDbArc
 50
130.3463876628286
 51
225.6536123371811
  0
CIRCLE
  5
3677C
102
{ACAD_REACTORS
330
36781
102
}
330
18
100
AcDbEntity
  8
細線
100
AcDbCircle
 10
333.176378393432
 20
-385.4002302345034
 30
0.0
 40
0.8299999999999998
  0
ARC
  5
3677D
102
{ACAD_REACTORS
330
36781
102
}
330
18
100
AcDbEntity
  8
細線
100
AcDbCircle
 10
333.7486911988036
 20
-384.4843382906545
 30
0.0
 40
0.5
100
AcDbArc
 50
190.346387662827
 51
285.6536123371661
  0
ARC
  5
3677E
102
{ACAD_REACTORS
330
36781
102
}
330
18
100
AcDbEntity
  8
細線
100
AcDbCircle
 10
332.0970363002513
 20
-385.3625387780646
 30
0.0
 40
0.5
100
AcDbArc
 50
310.3463876628286
 51
45.65361233718117
  0
ARC
  5
3677F
102
{ACAD_REACTORS
330
36781
102
}
330
18
100
AcDbEntity
  8
細線
100
AcDbCircle
 10
333.6834076812406
 20
-386.3538136347913
 30
0.0
 40
0.5
100
AcDbArc
 50
70.34638766281897
 51
165.6536123371925
  0
ARC
  5
36780
102
{ACAD_REACTORS
330
36781
102
}
330
18
100
AcDbEntity
  8
細線
100
AcDbCircle
 10
332.6040655880603
 20
-386.3161221783522
 30
0.0
 40
0.5
100
AcDbArc
 50
10.34638766282701
 51
105.6536123371661
  0
CIRCLE
  5
367A2
330
18
100
AcDbEntity
  8
細線
100
AcDbCircle
 10
51.44014639704276
 20
-419.5700377524982
 30
0.0
 40
2.5
  0
CIRCLE
  5
367A3
330
18
100
AcDbEntity
  8
0
100
AcDbCircle
 10
51.44014639704276
 20
-419.5700377524982
 30
0.0
 40
1.875
  0
LINE
  5
367A4
330
18
100
AcDbEntity
  8
中心線
100
AcDbLine
 10
48.94014639704379
 20
-415.2399107335756
 30
0.0
 11
53.94014639704174
 21
-423.9001647714212
 31
0.0
  0
CIRCLE
  5
367A9
330
18
100
AcDbEntity
  8
細線
100
AcDbCircle
 10
47.17796162066369
 20
-429.691453477374
 30
0.0
 40
2.74999999744107
  0
LWPOLYLINE
  5
367AA
330
18
100
AcDbEntity
  8
細線
100
AcDbPolyline
 90
        6
 70
     1
 43
0.0
 10
45.75651352105849
 20
-429.440817028338
 10
46.68429510284112
 20
-428.3351250884371
 10
48.10574320244541
 20
-428.5857615374728
 10
48.5994097202689
 20
-429.9420899264102
 10
47.67162813848626
 20
-431.0477818663113
 10
46.2501800388815
 20
-430.7971454172751
  0
CIRCLE
  5
367AB
330
18
100
AcDbEntity
  8
0
100
AcDbCircle
 10
47.1779616206646
 20
-429.691453477374
 30
0.0
 40
3.0
  0
CIRCLE
  5
367B0
330
18
100
AcDbEntity
  8
細線
100
AcDbCircle
 10
37.92796256973014
 20
-427.6321020283265
 30
0.0
 40
1.499999999999943
  0
CIRCLE
  5
367B1
330
18
100
AcDbEntity
  8
細線
100
AcDbCircle
 10
37.92796256973014
 20
-427.6321020283265
 30
0.0
 40
1.124999999999942
  0
ARC
  5
36D49
330
18
100
AcDbEntity
  8
0
100
AcDbCircle
 10
-41.55985360295267
 20
-310.8309453897621
 30
0.0
 40
15.0
100
AcDbArc
 50
90.0
 51
180.0
  0
ARC
  5
36D4A
330
18
100
AcDbEntity
  8
0
100
AcDbCircle
 10
-41.55985360295267
 20
-453.8309453897623
 30
0.0
 40
15.0
100
AcDbArc
 50
180.0
 51
270.0
  0
ARC
  5
36D4B
330
18
100
AcDbEntity
  8
0
100
AcDbCircle
 10
101.4401463970471
 20
-453.8309453897626
 30
0.0
 40
15.0
100
AcDbArc
 50
269.9999999999997
 51
0.0
  0
ARC
  5
36D4C
330
18
100
AcDbEntity
  8
0
100
AcDbCircle
 10
101.4401463970471
 20
-310.8309453897621
 30
0.0
 40
15.0
100
AcDbArc
 50
0.0
 51
90.0
  0
ARC
  5
36DA2
330
18
100
AcDbEntity
  8
0
100
AcDbCircle
 10
360.7835601819999
 20
-453.8309453897625
 30
0.0
 40
15.0
100
AcDbArc
 50
269.9999999999997
 51
0.0
  0
ARC
  5
36DA3
330
18
100
AcDbEntity
  8
0
100
AcDbCircle
 10
217.7835601820002
 20
-453.8309453897623
 30
0.0
 40
15.0
100
AcDbArc
 50
180.0
 51
270.0
  0
ARC
  5
36DA4
330
18
100
AcDbEntity
  8
0
100
AcDbCircle
 10
217.7835601820002
 20
-310.8309453897621
 30
0.0
 40
15.0
100
AcDbArc
 50
90.0
 51
180.0
  0
ARC
  5
36DA5
330
18
100
AcDbEntity
  8
0
100
AcDbCircle
 10
360.7835601819999
 20
-310.8309453897621
 30
0.0
 40
15.0
100
AcDbArc
 50
0.0
 51
90.0
  0
CIRCLE
  5
36E1C
330
18
100
AcDbEntity
  8
0
100
AcDbCircle
 10
29.94014639704733
 20
-382.3309453897623
 30
0.0
 40
17.49999999999998
  0
CIRCLE
  5
36E1D
330
18
100
AcDbEntity
  8
中心線
100
AcDbCircle
 10
29.94014639704733
 20
-382.3309453897623
 30
0.0
 40
42.99999999999978
  0
CIRCLE
  5
36E1E
330
18
100
AcDbEntity
  8
0
100
AcDbCircle
 10
289.2835601820002
 20
-382.3309453897621
 30
0.0
 40
48.00000000000018
  0
VIEWPORT
  5
23
330
15
100
AcDbEntity
 67
     1
  8
0
100
AcDbViewport
 10
200.0096842414677
 20
144.0033025491163
 30
0.0
 40
443.4424818562379
 41
290.2264748361424
 68
     1
 69
     1
1001
ACAD
1000
MVIEW
1002
{
1070
    16
1010
0.0
1020
0.0
1030
0.0
1010
0.0
1020
0.0
1030
1.0
1040
0.0
1040
290.2264748361424
1040
200.0096842414677
1040
144.0033025491163
1040
50.0
1040
0.0
1040
0.0
1070
     0
1070
  5000
1070
     1
1070
     0
1070
     0
1070
     0
1070
     0
1070
     0
1040
0.0
1040
0.0
1040
0.0
1040
10.0
1040
10.0
1040
10.0
1040
10.0
1070
     0
1002
{
1002
}
1002
}
  0
VIEWPORT
  5
2E
330
15
100
AcDbEntity
 67
     1
  8
M_VIEW
100
AcDbViewport
 10
200.0
 20
144.0
 30
0.0
 40
400.0
 41
288.0
 68
     2
 69
     2
1001
ACAD
1000
MVIEW
1002
{
1070
    16
1010
0.0
1020
0.0
1030
0.0
1010
0.0
1020
0.0
1030
1.0
1040
0.0
1040
576.0
1040
70.7294088234471
1040
-479.3487878773605
1040
50.0
1040
0.0
1040
0.0
1070
     0
1070
  5000
1070
     1
1070
     0
1070
     0
1070
     0
1070
     0
1070
     0
1040
0.0
1040
0.0
1040
0.0
1040
10.0
1040
10.0
1040
10.0
1040
10.0
1070
     0
1002
{
1002
}
1002
}
  0
INSERT
  5
115F
330
15
100
AcDbEntity
 67
     1
  8
FRAME025
100
AcDbBlockReference
  2
機械A4横_LBP
 10
82.74908858651452
 20
152.030959079227
 30
0.0
  0
TEXT
  5
AA6A
330
15
100
AcDbEntity
 67
     1
  8
文字
  6
BYBLOCK
 62
     0
100
AcDbText
 10
32.81885892396519
 20
73.01882819621747
 30
0.0
 40
3.2
  1

 50
90.0
 41
0.625
  7
MSｺ_ｼｯｸ
100
AcDbText
  0
TEXT
  5
AA6C
330
15
100
AcDbEntity
 67
     1
  8
文字
  6
BYBLOCK
 62
     0
100
AcDbText
 10
37.25020936743055
 20
73.01882819621747
 30
0.0
 40
3.2
  1

 50
90.0
 41
0.625
  7
MSｺ_ｼｯｸ
100
AcDbText
  0
TEXT
  5
FCA5
330
15
100
AcDbEntity
 67
     1
  8
FRAME020
  6
CONTINUOUS
100
AcDbText
 10
126.6213117262079
 20
29.63926951973459
 30
0.0
 40
2.5
  1

 41
0.625
  7
MSｺ_ｼｯｸ
100
AcDbText
  0
TEXT
  5
12229
330
15
100
AcDbEntity
 67
     1
  8
0
  6
CONTINUOUS
 62
     0
100
AcDbText
 10
324.703280378293
 20
10.63168299257869
 30
0.0
 40
6.0
  1
ＳＥ－４２０４２
 41
1.1
100
AcDbText
  0
MTEXT
  5
36E05
330
15
100
AcDbEntity
 67
     1
  8
DIMENSION
100
AcDbMText
 10
235.482468497852
 20
26.69292334104898
 30
0.0
 40
6.0
 41
156.1112
 71
     1
 72
     5
  1
{\C7;τDISCﾓｰﾀ D170-040-F NMR-FDDBA2D-201A}
1001
ACAD
1000
MTEXTBEGIN
1070
    73
1070
     1
1070
    44
1040
1.0
1070
    74
1070
     0
1000
MTEXTEND
  0
ENDSEC
  0
SECTION
  2
OBJECTS
  0
DICTIONARY
  5
C
330
0
100
AcDbDictionary
  3
ACAD_GROUP
350
D
  3
ACAD_LAYOUT
350
DB2
  3
ACAD_MLINESTYLE
350
1B
  3
ACAD_PLOTSETTINGS
350
DB3
  3
ACAD_PLOTSTYLENAME
350
FB5B
  3
ACADDIM
350
36DBA
  3
ACDBHEADERROUNDTRIPXREC
350
36E43
  3
ACDBVARIABLEDICTIONARY
350
106A6
  3
DWGPROPS
350
15EC9
1001
ACAD
1000
TREAT_AS_HARD
1070
     0
  0
DICTIONARY
  5
36601
330
2
100
AcDbDictionary
280
     1
  3
ACAD_LAYERFILTERS
360
36602
  3
ACAD_LAYERSTATES
360
36612
  0
DICTIONARY
  5
EFC6
330
18
100
AcDbDictionary
280
     1
  3
ACAD_LAYOUTSELFREF
360
36E65
  0
DICTIONARY
  5
EFC4
330
15
100
AcDbDictionary
280
     1
  3
ACAD_LAYOUTSELFREF
360
36E64
  0
DICTIONARY
  5
D
102
{ACAD_REACTORS
330
C
102
}
330
C
100
AcDbDictionary
  3
*A1
350
AC8A
  3
*A10
350
FCB8
  3
*A100
350
25E4E
  3
*A101
350
276A2
  3
*A102
350
35A9A
  3
*A103
350
360D4
  3
*A104
350
24873
  3
*A105
350
ACA1
  3
*A106
350
2516A
  3
*A107
350
2518A
  3
*A108
350
367FE
  3
*A109
350
35A9B
  3
*A11
350
2405D
  3
*A110
350
35A5D
  3
*A111
350
35A9C
  3
*A112
350
367FD
  3
*A113
350
361D2
  3
*A114
350
360CC
  3
*A115
350
361CE
  3
*A116
350
24CF4
  3
*A117
350
25DD4
  3
*A118
350
35A99
  3
*A119
350
25786
  3
*A12
350
ACA2
  3
*A120
350
361D0
  3
*A121
350
23BF9
  3
*A122
350
24200
  3
*A123
350
23D2B
  3
*A124
350
24FD4
  3
*A125
350
35A75
  3
*A126
350
360C9
  3
*A127
350
106B3
  3
*A128
350
25E4B
  3
*A129
350
FC91
  3
*A13
350
2568F
  3
*A130
350
35A50
  3
*A131
350
247ED
  3
*A132
350
36801
  3
*A133
350
FB6C
  3
*A134
350
25183
  3
*A135
350
361D4
  3
*A136
350
255D0
  3
*A137
350
24875
  3
*A138
350
2517A
  3
*A139
350
247CB
  3
*A14
350
35A70
  3
*A140
350
247EE
  3
*A141
350
106A5
  3
*A142
350
360D9
  3
*A15
350
106C7
  3
*A16
350
361D1
  3
*A17
350
FB6B
  3
*A18
350
23D19
  3
*A19
350
360CF
  3
*A2
350
35A5A
  3
*A20
350
360D1
  3
*A21
350
FC9A
  3
*A22
350
24874
  3
*A23
350
2405E
  3
*A24
350
361D3
  3
*A25
350
35A46
  3
*A26
350
ACB4
  3
*A27
350
23C0B
  3
*A28
350
36800
  3
*A29
350
360DA
  3
*A3
350
24F10
  3
*A30
350
360D7
  3
*A31
350
106C6
  3
*A32
350
FC9B
  3
*A33
350
24FAE
  3
*A34
350
25495
  3
*A35
350
35A71
  3
*A36
350
367FF
  3
*A37
350
276AB
  3
*A38
350
24CF7
  3
*A39
350
247B9
  3
*A4
350
24CF8
  3
*A40
350
2516B
  3
*A41
350
23D4F
  3
*A42
350
360D6
  3
*A43
350
360D3
  3
*A44
350
24876
  3
*A45
350
27699
  3
*A46
350
25494
  3
*A47
350
360D5
  3
*A48
350
23CE3
  3
*A49
350
35A77
  3
*A5
350
25493
  3
*A50
350
24DD5
  3
*A51
350
360D2
  3
*A52
350
FBFF
  3
*A53
350
24CE0
  3
*A54
350
36802
  3
*A55
350
36778
  3
*A56
350
ACAB
  3
*A57
350
3682F
  3
*A58
350
247F4
  3
*A59
350
27687
  3
*A6
350
2767E
  3
*A60
350
360D0
  3
*A61
350
35A5C
  3
*A62
350
24FB6
  3
*A63
350
35A73
  3
*A64
350
35A96
  3
*A65
350
255D1
  3
*A66
350
276B4
  3
*A67
350
2568D
  3
*A68
350
25482
  3
*A69
350
25E4D
  3
*A7
350
24DC0
  3
*A70
350
360D8
  3
*A71
350
35A98
  3
*A72
350
25187
  3
*A73
350
23D3D
  3
*A74
350
21518
  3
*A75
350
360CD
  3
*A76
350
27690
  3
*A77
350
2517B
  3
*A78
350
247F5
  3
*A79
350
360CE
  3
*A8
350
360C8
  3
*A80
350
FC95
  3
*A81
350
360CA
  3
*A82
350
23CF5
  3
*A83
350
25E4C
  3
*A84
350
AC9A
  3
*A85
350
367FC
  3
*A86
350
35A74
  3
*A87
350
35A59
  3
*A88
350
27674
  3
*A89
350
36781
  3
*A9
350
361CF
  3
*A90
350
23D07
  3
*A91
350
35A97
  3
*A92
350
247A7
  3
*A93
350
255E6
  3
*A94
350
360CB
  3
*A95
350
25180
  3
*A96
350
255CF
  3
*A97
350
2689D
  3
*A98
350
255D2
  3
*A99
350
ACBD
1001
ACAD
1000
TREAT_AS_HARD
1070
     0
  0
DICTIONARY
  5
DB2
102
{ACAD_REACTORS
330
C
102
}
330
C
100
AcDbDictionary
1001
ACAD
1000
TREAT_AS_HARD
1070
     0
  0
DICTIONARY
  5
1B
102
{ACAD_REACTORS
330
C
102
}
330
C
100
AcDbDictionary
  3
STANDARD
350
1C
1001
ACAD
1000
TREAT_AS_HARD
1070
     0
  0
DICTIONARY
  5
DB3
102
{ACAD_REACTORS
330
C
102
}
330
C
100
AcDbDictionary
1001
ACAD
1000
TREAT_AS_HARD
1070
     0
  0
ACDBDICTIONARYWDFLT
  5
FB5B
102
{ACAD_REACTORS
330
C
102
}
330
C
100
AcDbDictionary
281
     1
  3
Normal
350
FB5C
100
AcDbDictionaryWithDefault
340
FB5C
  0
XRECORD
  5
36DBA
102
{ACAD_REACTORS
330
C
102
}
330
C
100
AcDbXrecord
 90
   990106
  3

 60
     0
 61
     0
 62
     4
 63
     4
 64
     1
 65
     0
 66
     0
 67
     3
 68
     1
 69
     0
 70
     0
 71
     0
 72
     0
 40
0.0
170
     2
340
36DBC
  0
DICTIONARY
  5
36E43
102
{ACAD_REACTORS
330
C
102
}
330
C
100
AcDbDictionary
  3
CEPSNTYPE
350
36E4D
  3
DIMSTYLEDATA
350
36E51
  3
FINGERPRINTGUID
350
36E4E
  3
HYPERLINKBASE
350
36E46
  3
INSUNITS
350
36E4C
  3
LAYOUTDICT
350
36E48
  3
LWETCUNION
350
36E4B
  3
PLOTSETDICT
350
36E49
  3
PLOTSTYLNAMDICT
350
36E4A
  3
PSVPSCALE
350
36E50
  3
PUCSBASE
350
36E54
  3
PUCSORGBACK
350
36E5A
  3
PUCSORGBOTTOM
350
36E56
  3
PUCSORGFRONT
350
36E59
  3
PUCSORGLEFT
350
36E57
  3
PUCSORGRIGHT
350
36E58
  3
PUCSORGTOP
350
36E55
  3
PUCSORTHOREF
350
36E52
  3
PUCSORTHOVIEW
350
36E53
  3
STYLESHEET
350
36E47
  3
TSTACKALIGN
350
36E44
  3
TSTACKSIZE
350
36E45
  3
UCSBASE
350
36E5D
  3
UCSORGBACK
350
36E63
  3
UCSORGBOTTOM
350
36E5F
  3
UCSORGFRONT
350
36E62
  3
UCSORGLEFT
350
36E60
  3
UCSORGRIGHT
350
36E61
  3
UCSORGTOP
350
36E5E
  3
UCSORTHOREF
350
36E5B
  3
UCSORTHOVIEW
350
36E5C
  3
VERSIONGUID
350
36E4F
  0
DICTIONARY
  5
106A6
102
{ACAD_REACTORS
330
C
102
}
330
C
100
AcDbDictionary
  3
SORTENTS
350
106A7
  0
XRECORD
  5
15EC9
102
{ACAD_REACTORS
330
C
102
}
330
C
100
AcDbXrecord
  1
DWGPROPS COOKIE
  2

  3

  4

  6

  7

  8

  9

300
=
301
=
302
=
303
=
304
=
305
=
306
=
307
=
308
=
309
=
 40
12.65185717592592
 41
2451224.660162384
 42
2452395.660827315
  1

 90
        0
  0
DICTIONARY
  5
36602
102
{ACAD_REACTORS
330
36601
102
}
330
36601
100
AcDbDictionary
280
     1
  3
0
360
36603
  3
11
360
36604
  3
150_
360
36605
  3
160_
360
36606
  3
170_
360
36607
  3
171_
360
36608
  3
350_
360
36609
  3
4
360
3660A
  3
5
360
3660B
  3
7
360
3660C
  3
KISEKI
360
3660D
  0
DICTIONARY
  5
36612
102
{ACAD_REACTORS
330
36601
102
}
330
36601
100
AcDbDictionary
  0
XRECORD
  5
36E65
102
{ACAD_REACTORS
330
EFC6
102
}
330
EFC6
100
AcDbXrecord
340
18
  0
XRECORD
  5
36E64
102
{ACAD_REACTORS
330
EFC4
102
}
330
EFC4
100
AcDbXrecord
340
15
  0
GROUP
  5
AC8A
102
{ACAD_REACTORS
330
D
102
}
330
D
100
AcDbGroup
300

 70
     1
 71
     1
  0
GROUP
  5
FCB8
102
{ACAD_REACTORS
330
D
102
}
330
D
100
AcDbGroup
300

 70
     1
 71
     1
  0
GROUP
  5
25E4E
102
{ACAD_REACTORS
330
D
102
}
330
D
100
AcDbGroup
300

 70
     1
 71
     1
  0
GROUP
  5
276A2
102
{ACAD_REACTORS
330
D
102
}
330
D
100
AcDbGroup
300

 70
     1
 71
     1
340
2769B
340
2769C
340
2769A
340
2769D
340
2769E
340
2769F
340
276A0
340
276A1
  0
GROUP
  5
35A9A
102
{ACAD_REACTORS
330
D
102
}
330
D
100
AcDbGroup
300

 70
     1
 71
     1
340
35A82
340
35A81
340
35A92
340
35A91
340
35A86
340
35A85
340
35A80
  0
GROUP
  5
360D4
102
{ACAD_REACTORS
330
D
102
}
330
D
100
AcDbGroup
300

 70
     1
 71
     1
  0
GROUP
  5
24873
102
{ACAD_REACTORS
330
D
102
}
330
D
100
AcDbGroup
300

 70
     1
 71
     1
  0
GROUP
  5
ACA1
102
{ACAD_REACTORS
330
D
102
}
330
D
100
AcDbGroup
300

 70
     1
 71
     1
  0
GROUP
  5
2516A
102
{ACAD_REACTORS
330
D
102
}
330
D
100
AcDbGroup
300

 70
     1
 71
     1
  0
GROUP
  5
2518A
102
{ACAD_REACTORS
330
D
102
}
330
D
100
AcDbGroup
300

 70
     1
 71
     1
  0
GROUP
  5
367FE
102
{ACAD_REACTORS
330
D
102
}
330
D
100
AcDbGroup
300

 70
     1
 71
     1
  0
GROUP
  5
35A9B
102
{ACAD_REACTORS
330
D
102
}
330
D
100
AcDbGroup
300

 70
     1
 71
     1
340
35A80
340
35A81
340
35A82
340
35A85
340
35A86
340
35A92
340
35A91
  0
GROUP
  5
2405D
102
{ACAD_REACTORS
330
D
102
}
330
D
100
AcDbGroup
300

 70
     1
 71
     1
  0
GROUP
  5
35A5D
102
{ACAD_REACTORS
330
D
102
}
330
D
100
AcDbGroup
300

 70
     1
 71
     1
  0
GROUP
  5
35A9C
102
{ACAD_REACTORS
330
D
102
}
330
D
100
AcDbGroup
300

 70
     1
 71
     1
340
35A82
340
35A81
340
35A92
340
35A91
340
35A86
340
35A85
340
35A80
  0
GROUP
  5
367FD
102
{ACAD_REACTORS
330
D
102
}
330
D
100
AcDbGroup
300

 70
     1
 71
     1
  0
GROUP
  5
361D2
102
{ACAD_REACTORS
330
D
102
}
330
D
100
AcDbGroup
300

 70
     1
 71
     1
340
361BD
340
361BC
340
361BE
340
361C1
340
361C2
340
361C8
340
361C7
  0
GROUP
  5
360CC
102
{ACAD_REACTORS
330
D
102
}
330
D
100
AcDbGroup
300

 70
     1
 71
     1
  0
GROUP
  5
361CE
102
{ACAD_REACTORS
330
D
102
}
330
D
100
AcDbGroup
300

 70
     1
 71
     1
340
361CC
340
361C5
340
361CA
340
361CB
340
361C3
340
361C6
340
361CD
  0
GROUP
  5
24CF4
102
{ACAD_REACTORS
330
D
102
}
330
D
100
AcDbGroup
300

 70
     1
 71
     1
  0
GROUP
  5
25DD4
102
{ACAD_REACTORS
330
D
102
}
330
D
100
AcDbGroup
300

 70
     1
 71
     1
  0
GROUP
  5
35A99
102
{ACAD_REACTORS
330
D
102
}
330
D
100
AcDbGroup
300

 70
     1
 71
     1
340
35A95
340
35A84
340
35A83
340
35A87
  0
GROUP
  5
25786
102
{ACAD_REACTORS
330
D
102
}
330
D
100
AcDbGroup
300

 70
     1
 71
     1
  0
GROUP
  5
ACA2
102
{ACAD_REACTORS
330
D
102
}
330
D
100
AcDbGroup
300

 70
     1
 71
     1
  0
GROUP
  5
361D0
102
{ACAD_REACTORS
330
D
102
}
330
D
100
AcDbGroup
300

 70
     1
 71
     1
340
361C5
340
361CA
340
361CB
340
361CC
340
361C3
340
361C6
  0
GROUP
  5
23BF9
102
{ACAD_REACTORS
330
D
102
}
330
D
100
AcDbGroup
300

 70
     1
 71
     1
  0
GROUP
  5
24200
102
{ACAD_REACTORS
330
D
102
}
330
D
100
AcDbGroup
300

 70
     1
 71
     1
  0
GROUP
  5
23D2B
102
{ACAD_REACTORS
330
D
102
}
330
D
100
AcDbGroup
300

 70
     1
 71
     1
  0
GROUP
  5
24FD4
102
{ACAD_REACTORS
330
D
102
}
330
D
100
AcDbGroup
300

 70
     1
 71
     1
  0
GROUP
  5
35A75
102
{ACAD_REACTORS
330
D
102
}
330
D
100
AcDbGroup
300

 70
     1
 71
     1
  0
GROUP
  5
360C9
102
{ACAD_REACTORS
330
D
102
}
330
D
100
AcDbGroup
300

 70
     1
 71
     1
  0
GROUP
  5
106B3
102
{ACAD_REACTORS
330
D
102
}
330
D
100
AcDbGroup
300

 70
     1
 71
     1
  0
GROUP
  5
25E4B
102
{ACAD_REACTORS
330
D
102
}
330
D
100
AcDbGroup
300

 70
     1
 71
     1
  0
GROUP
  5
FC91
102
{ACAD_REACTORS
330
D
102
}
330
D
100
AcDbGroup
300

 70
     1
 71
     1
  0
GROUP
  5
2568F
102
{ACAD_REACTORS
330
D
102
}
330
D
100
AcDbGroup
300

 70
     1
 71
     1
  0
GROUP
  5
35A50
102
{ACAD_REACTORS
330
D
102
}
330
D
100
AcDbGroup
300

 70
     1
 71
     1
  0
GROUP
  5
247ED
102
{ACAD_REACTORS
330
D
102
}
330
D
100
AcDbGroup
300

 70
     1
 71
     1
  0
GROUP
  5
36801
102
{ACAD_REACTORS
330
D
102
}
330
D
100
AcDbGroup
300

 70
     1
 71
     1
  0
GROUP
  5
FB6C
102
{ACAD_REACTORS
330
D
102
}
330
D
100
AcDbGroup
300

 70
     1
 71
     1
  0
GROUP
  5
25183
102
{ACAD_REACTORS
330
D
102
}
330
D
100
AcDbGroup
300

 70
     1
 71
     1
  0
GROUP
  5
361D4
102
{ACAD_REACTORS
330
D
102
}
330
D
100
AcDbGroup
300

 70
     1
 71
     1
340
361C9
340
361C0
340
361BF
340
361C4
  0
GROUP
  5
255D0
102
{ACAD_REACTORS
330
D
102
}
330
D
100
AcDbGroup
300

 70
     1
 71
     1
  0
GROUP
  5
24875
102
{ACAD_REACTORS
330
D
102
}
330
D
100
AcDbGroup
300

 70
     1
 71
     1
  0
GROUP
  5
2517A
102
{ACAD_REACTORS
330
D
102
}
330
D
100
AcDbGroup
300

 70
     1
 71
     1
  0
GROUP
  5
247CB
102
{ACAD_REACTORS
330
D
102
}
330
D
100
AcDbGroup
300

 70
     1
 71
     1
  0
GROUP
  5
35A70
102
{ACAD_REACTORS
330
D
102
}
330
D
100
AcDbGroup
300

 70
     1
 71
     1
  0
GROUP
  5
247EE
102
{ACAD_REACTORS
330
D
102
}
330
D
100
AcDbGroup
300

 70
     1
 71
     1
  0
GROUP
  5
106A5
102
{ACAD_REACTORS
330
D
102
}
330
D
100
AcDbGroup
300

 70
     1
 71
     1
  0
GROUP
  5
360D9
102
{ACAD_REACTORS
330
D
102
}
330
D
100
AcDbGroup
300

 70
     1
 71
     1
  0
GROUP
  5
106C7
102
{ACAD_REACTORS
330
D
102
}
330
D
100
AcDbGroup
300

 70
     1
 71
     1
  0
GROUP
  5
361D1
102
{ACAD_REACTORS
330
D
102
}
330
D
100
AcDbGroup
300

 70
     1
 71
     1
340
361BE
340
361BC
340
361C8
340
361C7
340
361C2
340
361C1
340
361BD
  0
GROUP
  5
FB6B
102
{ACAD_REACTORS
330
D
102
}
330
D
100
AcDbGroup
300

 70
     1
 71
     1
  0
GROUP
  5
23D19
102
{ACAD_REACTORS
330
D
102
}
330
D
100
AcDbGroup
300

 70
     1
 71
     1
  0
GROUP
  5
360CF
102
{ACAD_REACTORS
330
D
102
}
330
D
100
AcDbGroup
300

 70
     1
 71
     1
  0
GROUP
  5
35A5A
102
{ACAD_REACTORS
330
D
102
}
330
D
100
AcDbGroup
300

 70
     1
 71
     1
  0
GROUP
  5
360D1
102
{ACAD_REACTORS
330
D
102
}
330
D
100
AcDbGroup
300

 70
     1
 71
     1
  0
GROUP
  5
FC9A
102
{ACAD_REACTORS
330
D
102
}
330
D
100
AcDbGroup
300

 70
     1
 71
     1
  0
GROUP
  5
24874
102
{ACAD_REACTORS
330
D
102
}
330
D
100
AcDbGroup
300

 70
     1
 71
     1
  0
GROUP
  5
2405E
102
{ACAD_REACTORS
330
D
102
}
330
D
100
AcDbGroup
300

 70
     1
 71
     1
  0
GROUP
  5
361D3
102
{ACAD_REACTORS
330
D
102
}
330
D
100
AcDbGroup
300

 70
     1
 71
     1
340
361BE
340
361BC
340
361C8
340
361C7
340
361C2
340
361C1
340
361BD
  0
GROUP
  5
35A46
102
{ACAD_REACTORS
330
D
102
}
330
D
100
AcDbGroup
300

 70
     1
 71
     1
340
35A3F
340
35A40
340
35A3E
340
35A41
340
35A42
340
35A43
340
35A44
340
35A45
  0
GROUP
  5
ACB4
102
{ACAD_REACTORS
330
D
102
}
330
D
100
AcDbGroup
300

 70
     1
 71
     1
  0
GROUP
  5
23C0B
102
{ACAD_REACTORS
330
D
102
}
330
D
100
AcDbGroup
300

 70
     1
 71
     1
  0
GROUP
  5
36800
102
{ACAD_REACTORS
330
D
102
}
330
D
100
AcDbGroup
300

 70
     1
 71
     1
  0
GROUP
  5
360DA
102
{ACAD_REACTORS
330
D
102
}
330
D
100
AcDbGroup
300

 70
     1
 71
     1
  0
GROUP
  5
24F10
102
{ACAD_REACTORS
330
D
102
}
330
D
100
AcDbGroup
300

 70
     1
 71
     1
  0
GROUP
  5
360D7
102
{ACAD_REACTORS
330
D
102
}
330
D
100
AcDbGroup
300

 70
     1
 71
     1
  0
GROUP
  5
106C6
102
{ACAD_REACTORS
330
D
102
}
330
D
100
AcDbGroup
300

 70
     1
 71
     1
  0
GROUP
  5
FC9B
102
{ACAD_REACTORS
330
D
102
}
330
D
100
AcDbGroup
300

 70
     1
 71
     1
  0
GROUP
  5
24FAE
102
{ACAD_REACTORS
330
D
102
}
330
D
100
AcDbGroup
300

 70
     1
 71
     1
  0
GROUP
  5
25495
102
{ACAD_REACTORS
330
D
102
}
330
D
100
AcDbGroup
300

 70
     1
 71
     1
  0
GROUP
  5
35A71
102
{ACAD_REACTORS
330
D
102
}
330
D
100
AcDbGroup
300

 70
     1
 71
     1
  0
GROUP
  5
367FF
102
{ACAD_REACTORS
330
D
102
}
330
D
100
AcDbGroup
300

 70
     1
 71
     1
  0
GROUP
  5
276AB
102
{ACAD_REACTORS
330
D
102
}
330
D
100
AcDbGroup
300

 70
     1
 71
     1
340
276A4
340
276A5
340
276A3
340
276A6
340
276A7
340
276A8
340
276A9
340
276AA
  0
GROUP
  5
24CF7
102
{ACAD_REACTORS
330
D
102
}
330
D
100
AcDbGroup
300

 70
     1
 71
     1
  0
GROUP
  5
247B9
102
{ACAD_REACTORS
330
D
102
}
330
D
100
AcDbGroup
300

 70
     1
 71
     1
  0
GROUP
  5
24CF8
102
{ACAD_REACTORS
330
D
102
}
330
D
100
AcDbGroup
300

 70
     1
 71
     1
  0
GROUP
  5
2516B
102
{ACAD_REACTORS
330
D
102
}
330
D
100
AcDbGroup
300

 70
     1
 71
     1
  0
GROUP
  5
23D4F
102
{ACAD_REACTORS
330
D
102
}
330
D
100
AcDbGroup
300

 70
     1
 71
     1
  0
GROUP
  5
360D6
102
{ACAD_REACTORS
330
D
102
}
330
D
100
AcDbGroup
300

 70
     1
 71
     1
  0
GROUP
  5
360D3
102
{ACAD_REACTORS
330
D
102
}
330
D
100
AcDbGroup
300

 70
     1
 71
     1
  0
GROUP
  5
24876
102
{ACAD_REACTORS
330
D
102
}
330
D
100
AcDbGroup
300

 70
     1
 71
     1
  0
GROUP
  5
27699
102
{ACAD_REACTORS
330
D
102
}
330
D
100
AcDbGroup
300

 70
     1
 71
     1
340
27692
340
27693
340
27691
340
27694
340
27695
340
27696
340
27697
340
27698
  0
GROUP
  5
25494
102
{ACAD_REACTORS
330
D
102
}
330
D
100
AcDbGroup
300

 70
     1
 71
     1
  0
GROUP
  5
360D5
102
{ACAD_REACTORS
330
D
102
}
330
D
100
AcDbGroup
300

 70
     1
 71
     1
  0
GROUP
  5
23CE3
102
{ACAD_REACTORS
330
D
102
}
330
D
100
AcDbGroup
300

 70
     1
 71
     1
  0
GROUP
  5
35A77
102
{ACAD_REACTORS
330
D
102
}
330
D
100
AcDbGroup
300

 70
     1
 71
     1
  0
GROUP
  5
25493
102
{ACAD_REACTORS
330
D
102
}
330
D
100
AcDbGroup
300

 70
     1
 71
     1
  0
GROUP
  5
24DD5
102
{ACAD_REACTORS
330
D
102
}
330
D
100
AcDbGroup
300

 70
     1
 71
     1
  0
GROUP
  5
360D2
102
{ACAD_REACTORS
330
D
102
}
330
D
100
AcDbGroup
300

 70
     1
 71
     1
  0
GROUP
  5
FBFF
102
{ACAD_REACTORS
330
D
102
}
330
D
100
AcDbGroup
300

 70
     1
 71
     1
  0
GROUP
  5
24CE0
102
{ACAD_REACTORS
330
D
102
}
330
D
100
AcDbGroup
300

 70
     1
 71
     1
  0
GROUP
  5
36802
102
{ACAD_REACTORS
330
D
102
}
330
D
100
AcDbGroup
300

 70
     1
 71
     1
  0
GROUP
  5
36778
102
{ACAD_REACTORS
330
D
102
}
330
D
100
AcDbGroup
300

 70
     1
 71
     1
340
36771
340
36772
340
36770
340
36773
340
36774
340
36775
340
36776
340
36777
  0
GROUP
  5
ACAB
102
{ACAD_REACTORS
330
D
102
}
330
D
100
AcDbGroup
300

 70
     1
 71
     1
  0
GROUP
  5
3682F
102
{ACAD_REACTORS
330
D
102
}
330
D
100
AcDbGroup
300

 70
     1
 71
     1
  0
GROUP
  5
247F4
102
{ACAD_REACTORS
330
D
102
}
330
D
100
AcDbGroup
300

 70
     1
 71
     1
  0
GROUP
  5
27687
102
{ACAD_REACTORS
330
D
102
}
330
D
100
AcDbGroup
300

 70
     1
 71
     1
340
27680
340
27681
340
2767F
340
27682
340
27683
340
27684
340
27685
340
27686
  0
GROUP
  5
2767E
102
{ACAD_REACTORS
330
D
102
}
330
D
100
AcDbGroup
300

 70
     1
 71
     1
340
27677
340
27678
340
27676
340
27679
340
2767A
340
2767B
340
2767C
340
2767D
  0
GROUP
  5
360D0
102
{ACAD_REACTORS
330
D
102
}
330
D
100
AcDbGroup
300

 70
     1
 71
     1
  0
GROUP
  5
35A5C
102
{ACAD_REACTORS
330
D
102
}
330
D
100
AcDbGroup
300

 70
     1
 71
     1
  0
GROUP
  5
24FB6
102
{ACAD_REACTORS
330
D
102
}
330
D
100
AcDbGroup
300

 70
     1
 71
     1
  0
GROUP
  5
35A73
102
{ACAD_REACTORS
330
D
102
}
330
D
100
AcDbGroup
300

 70
     1
 71
     1
  0
GROUP
  5
35A96
102
{ACAD_REACTORS
330
D
102
}
330
D
100
AcDbGroup
300

 70
     1
 71
     1
340
35A7C
340
35A79
340
35A7B
340
35A78
340
35A7D
340
35A7E
340
35A7F
  0
GROUP
  5
255D1
102
{ACAD_REACTORS
330
D
102
}
330
D
100
AcDbGroup
300

 70
     1
 71
     1
  0
GROUP
  5
276B4
102
{ACAD_REACTORS
330
D
102
}
330
D
100
AcDbGroup
300

 70
     1
 71
     1
340
276AD
340
276AE
340
276AC
340
276AF
340
276B0
340
276B1
340
276B2
340
276B3
  0
GROUP
  5
2568D
102
{ACAD_REACTORS
330
D
102
}
330
D
100
AcDbGroup
300

 70
     1
 71
     1
  0
GROUP
  5
25482
102
{ACAD_REACTORS
330
D
102
}
330
D
100
AcDbGroup
300

 70
     1
 71
     1
  0
GROUP
  5
25E4D
102
{ACAD_REACTORS
330
D
102
}
330
D
100
AcDbGroup
300

 70
     1
 71
     1
  0
GROUP
  5
24DC0
102
{ACAD_REACTORS
330
D
102
}
330
D
100
AcDbGroup
300

 70
     1
 71
     1
  0
GROUP
  5
360D8
102
{ACAD_REACTORS
330
D
102
}
330
D
100
AcDbGroup
300

 70
     1
 71
     1
  0
GROUP
  5
35A98
102
{ACAD_REACTORS
330
D
102
}
330
D
100
AcDbGroup
300

 70
     1
 71
     1
340
35A79
340
35A7B
340
35A78
340
35A7C
340
35A7D
340
35A7E
  0
GROUP
  5
25187
102
{ACAD_REACTORS
330
D
102
}
330
D
100
AcDbGroup
300

 70
     1
 71
     1
  0
GROUP
  5
23D3D
102
{ACAD_REACTORS
330
D
102
}
330
D
100
AcDbGroup
300

 70
     1
 71
     1
  0
GROUP
  5
21518
102
{ACAD_REACTORS
330
D
102
}
330
D
100
AcDbGroup
300

 70
     1
 71
     1
  0
GROUP
  5
360CD
102
{ACAD_REACTORS
330
D
102
}
330
D
100
AcDbGroup
300

 70
     1
 71
     1
  0
GROUP
  5
27690
102
{ACAD_REACTORS
330
D
102
}
330
D
100
AcDbGroup
300

 70
     1
 71
     1
340
27689
340
2768A
340
27688
340
2768B
340
2768C
340
2768D
340
2768E
340
2768F
  0
GROUP
  5
2517B
102
{ACAD_REACTORS
330
D
102
}
330
D
100
AcDbGroup
300

 70
     1
 71
     1
  0
GROUP
  5
247F5
102
{ACAD_REACTORS
330
D
102
}
330
D
100
AcDbGroup
300

 70
     1
 71
     1
  0
GROUP
  5
360CE
102
{ACAD_REACTORS
330
D
102
}
330
D
100
AcDbGroup
300

 70
     1
 71
     1
  0
GROUP
  5
360C8
102
{ACAD_REACTORS
330
D
102
}
330
D
100
AcDbGroup
300

 70
     1
 71
     1
  0
GROUP
  5
FC95
102
{ACAD_REACTORS
330
D
102
}
330
D
100
AcDbGroup
300

 70
     1
 71
     1
  0
GROUP
  5
360CA
102
{ACAD_REACTORS
330
D
102
}
330
D
100
AcDbGroup
300

 70
     1
 71
     1
  0
GROUP
  5
23CF5
102
{ACAD_REACTORS
330
D
102
}
330
D
100
AcDbGroup
300

 70
     1
 71
     1
  0
GROUP
  5
25E4C
102
{ACAD_REACTORS
330
D
102
}
330
D
100
AcDbGroup
300

 70
     1
 71
     1
  0
GROUP
  5
AC9A
102
{ACAD_REACTORS
330
D
102
}
330
D
100
AcDbGroup
300

 70
     1
 71
     1
  0
GROUP
  5
367FC
102
{ACAD_REACTORS
330
D
102
}
330
D
100
AcDbGroup
300

 70
     1
 71
     1
  0
GROUP
  5
35A74
102
{ACAD_REACTORS
330
D
102
}
330
D
100
AcDbGroup
300

 70
     1
 71
     1
  0
GROUP
  5
35A59
102
{ACAD_REACTORS
330
D
102
}
330
D
100
AcDbGroup
300

 70
     1
 71
     1
  0
GROUP
  5
27674
102
{ACAD_REACTORS
330
D
102
}
330
D
100
AcDbGroup
300

 70
     1
 71
     1
340
27671
340
27670
340
2766F
340
2766C
340
27673
340
27672
340
2766E
340
2766D
  0
GROUP
  5
36781
102
{ACAD_REACTORS
330
D
102
}
330
D
100
AcDbGroup
300

 70
     1
 71
     1
340
3677A
340
3677B
340
36779
340
3677C
340
3677D
340
3677E
340
3677F
340
36780
  0
GROUP
  5
361CF
102
{ACAD_REACTORS
330
D
102
}
330
D
100
AcDbGroup
300

 70
     1
 71
     1
340
361BD
340
361BC
340
361BE
340
361BF
340
361C0
340
361C1
340
361C2
340
361C3
340
361C4
340
361C5
340
361C6
340
361C7
340
361C8
340
361C9
340
361CA
340
361CB
340
361CC
340
361CD
  0
GROUP
  5
23D07
102
{ACAD_REACTORS
330
D
102
}
330
D
100
AcDbGroup
300

 70
     1
 71
     1
  0
GROUP
  5
35A97
102
{ACAD_REACTORS
330
D
102
}
330
D
100
AcDbGroup
300

 70
     1
 71
     1
340
35A80
340
35A81
340
35A82
340
35A83
340
35A84
340
35A85
340
35A86
340
35A7D
340
35A87
340
35A79
340
35A7E
340
35A91
340
35A92
340
35A95
340
35A7B
340
35A78
340
35A7C
340
35A7F
  0
GROUP
  5
247A7
102
{ACAD_REACTORS
330
D
102
}
330
D
100
AcDbGroup
300

 70
     1
 71
     1
  0
GROUP
  5
255E6
102
{ACAD_REACTORS
330
D
102
}
330
D
100
AcDbGroup
300

 70
     1
 71
     1
  0
GROUP
  5
360CB
102
{ACAD_REACTORS
330
D
102
}
330
D
100
AcDbGroup
300

 70
     1
 71
     1
  0
GROUP
  5
25180
102
{ACAD_REACTORS
330
D
102
}
330
D
100
AcDbGroup
300

 70
     1
 71
     1
  0
GROUP
  5
255CF
102
{ACAD_REACTORS
330
D
102
}
330
D
100
AcDbGroup
300

 70
     1
 71
     1
  0
GROUP
  5
2689D
102
{ACAD_REACTORS
330
D
102
}
330
D
100
AcDbGroup
300

 70
     1
 71
     1
  0
GROUP
  5
255D2
102
{ACAD_REACTORS
330
D
102
}
330
D
100
AcDbGroup
300

 70
     1
 71
     1
  0
GROUP
  5
ACBD
102
{ACAD_REACTORS
330
D
102
}
330
D
100
AcDbGroup
300

 70
     1
 71
     1
  0
MLINESTYLE
  5
1C
102
{ACAD_REACTORS
330
1B
102
}
330
1B
100
AcDbMlineStyle
  2
STANDARD
 70
     0
  3

 62
   256
 51
90.0
 52
90.0
 71
     2
 49
0.5
 62
   256
  6
BYLAYER
 49
-0.5
 62
   256
  6
BYLAYER
  0
ACDBPLACEHOLDER
  5
FB5C
102
{ACAD_REACTORS
330
FB5B
102
}
330
FB5B
100
AcDbPlaceHolder
280
     0
  0
XRECORD
  5
36E4D
102
{ACAD_REACTORS
330
36E43
102
}
330
36E43
100
AcDbXrecord
 90
        0
  0
XRECORD
  5
36E51
102
{ACAD_REACTORS
330
36E43
102
}
330
36E43
100
AcDbXrecord
1000
DSTYLE
1002
{
1070
    79
 70
     2
1070
   179
 70
     2
1070
   289
 70
     2
1070
   341
340
1215D
1070
   342
340
1215D
1002
}
  0
XRECORD
  5
36E4E
102
{ACAD_REACTORS
330
36E43
102
}
330
36E43
100
AcDbXrecord
  1
{D14EE3FF-941A-415A-9907-344E0A80D794}
  0
XRECORD
  5
36E46
102
{ACAD_REACTORS
330
36E43
102
}
330
36E43
100
AcDbXrecord
  1

  0
XRECORD
  5
36E4C
102
{ACAD_REACTORS
330
36E43
102
}
330
36E43
100
AcDbXrecord
 90
        0
  0
XRECORD
  5
36E48
102
{ACAD_REACTORS
330
36E43
102
}
330
36E43
100
AcDbXrecord
340
DB2
  0
XRECORD
  5
36E4B
102
{ACAD_REACTORS
330
36E43
102
}
330
36E43
100
AcDbXrecord
 90
    10269
  0
XRECORD
  5
36E49
102
{ACAD_REACTORS
330
36E43
102
}
330
36E43
100
AcDbXrecord
340
DB3
  0
XRECORD
  5
36E4A
102
{ACAD_REACTORS
330
36E43
102
}
330
36E43
100
AcDbXrecord
340
FB5B
  0
XRECORD
  5
36E50
102
{ACAD_REACTORS
330
36E43
102
}
330
36E43
100
AcDbXrecord
 40
0.0
  0
XRECORD
  5
36E54
102
{ACAD_REACTORS
330
36E43
102
}
330
36E43
100
AcDbXrecord
340
0
  0
XRECORD
  5
36E5A
102
{ACAD_REACTORS
330
36E43
102
}
330
36E43
100
AcDbXrecord
 10
0.0
 20
0.0
 30
0.0
  0
XRECORD
  5
36E56
102
{ACAD_REACTORS
330
36E43
102
}
330
36E43
100
AcDbXrecord
 10
0.0
 20
0.0
 30
0.0
  0
XRECORD
  5
36E59
102
{ACAD_REACTORS
330
36E43
102
}
330
36E43
100
AcDbXrecord
 10
0.0
 20
0.0
 30
0.0
  0
XRECORD
  5
36E57
102
{ACAD_REACTORS
330
36E43
102
}
330
36E43
100
AcDbXrecord
 10
0.0
 20
0.0
 30
0.0
  0
XRECORD
  5
36E58
102
{ACAD_REACTORS
330
36E43
102
}
330
36E43
100
AcDbXrecord
 10
0.0
 20
0.0
 30
0.0
  0
XRECORD
  5
36E55
102
{ACAD_REACTORS
330
36E43
102
}
330
36E43
100
AcDbXrecord
 10
0.0
 20
0.0
 30
0.0
  0
XRECORD
  5
36E52
102
{ACAD_REACTORS
330
36E43
102
}
330
36E43
100
AcDbXrecord
340
0
  0
XRECORD
  5
36E53
102
{ACAD_REACTORS
330
36E43
102
}
330
36E43
100
AcDbXrecord
 70
     0
  0
XRECORD
  5
36E47
102
{ACAD_REACTORS
330
36E43
102
}
330
36E43
100
AcDbXrecord
  1

  0
XRECORD
  5
36E44
102
{ACAD_REACTORS
330
36E43
102
}
330
36E43
100
AcDbXrecord
 90
        1
  0
XRECORD
  5
36E45
102
{ACAD_REACTORS
330
36E43
102
}
330
36E43
100
AcDbXrecord
 90
       70
  0
XRECORD
  5
36E5D
102
{ACAD_REACTORS
330
36E43
102
}
330
36E43
100
AcDbXrecord
340
0
  0
XRECORD
  5
36E63
102
{ACAD_REACTORS
330
36E43
102
}
330
36E43
100
AcDbXrecord
 10
0.0
 20
0.0
 30
0.0
  0
XRECORD
  5
36E5F
102
{ACAD_REACTORS
330
36E43
102
}
330
36E43
100
AcDbXrecord
 10
0.0
 20
0.0
 30
0.0
  0
XRECORD
  5
36E62
102
{ACAD_REACTORS
330
36E43
102
}
330
36E43
100
AcDbXrecord
 10
0.0
 20
0.0
 30
0.0
  0
XRECORD
  5
36E60
102
{ACAD_REACTORS
330
36E43
102
}
330
36E43
100
AcDbXrecord
 10
0.0
 20
0.0
 30
0.0
  0
XRECORD
  5
36E61
102
{ACAD_REACTORS
330
36E43
102
}
330
36E43
100
AcDbXrecord
 10
0.0
 20
0.0
 30
0.0
  0
XRECORD
  5
36E5E
102
{ACAD_REACTORS
330
36E43
102
}
330
36E43
100
AcDbXrecord
 10
0.0
 20
0.0
 30
0.0
  0
XRECORD
  5
36E5B
102
{ACAD_REACTORS
330
36E43
102
}
330
36E43
100
AcDbXrecord
340
0
  0
XRECORD
  5
36E5C
102
{ACAD_REACTORS
330
36E43
102
}
330
36E43
100
AcDbXrecord
 70
     0
  0
XRECORD
  5
36E4F
102
{ACAD_REACTORS
330
36E43
102
}
330
36E43
100
AcDbXrecord
  1
{07B08329-7137-49FC-A955-4F78FDE749BA}
  0
DICTIONARYVAR
  5
106A7
102
{ACAD_REACTORS
330
106A6
102
}
330
106A6
100
DictionaryVariables
280
     0
  1
96
  0
XRECORD
  5
36603
102
{ACAD_REACTORS
330
36602
102
}
330
36602
100
AcDbXrecord
  1
0
  1
*0
  1
*
  1
*
 70
     0
  1
*
  1
*
  0
XRECORD
  5
36604
102
{ACAD_REACTORS
330
36602
102
}
330
36602
100
AcDbXrecord
  1
11
  1
*11
  1
*
  1
*
 70
     0
  1
*
  1
*
  0
XRECORD
  5
36605
102
{ACAD_REACTORS
330
36602
102
}
330
36602
100
AcDbXrecord
  1
150_
  1
150_*
  1
*
  1
*
 70
     0
  1
*
  1
*
  0
XRECORD
  5
36606
102
{ACAD_REACTORS
330
36602
102
}
330
36602
100
AcDbXrecord
  1
160_
  1
160_*
  1
*
  1
*
 70
     0
  1
*
  1
*
  0
XRECORD
  5
36607
102
{ACAD_REACTORS
330
36602
102
}
330
36602
100
AcDbXrecord
  1
170_
  1
170_*
  1
*
  1
*
 70
     0
  1
*
  1
*
  0
XRECORD
  5
36608
102
{ACAD_REACTORS
330
36602
102
}
330
36602
100
AcDbXrecord
  1
171_
  1
171_*
  1
*
  1
*
 70
     0
  1
*
  1
*
  0
XRECORD
  5
36609
102
{ACAD_REACTORS
330
36602
102
}
330
36602
100
AcDbXrecord
  1
350_
  1
350_*
  1
*
  1
*
 70
     0
  1
*
  1
*
  0
XRECORD
  5
3660A
102
{ACAD_REACTORS
330
36602
102
}
330
36602
100
AcDbXrecord
  1
4
  1
*4
  1
*
  1
*
 70
     0
  1
*
  1
*
  0
XRECORD
  5
3660B
102
{ACAD_REACTORS
330
36602
102
}
330
36602
100
AcDbXrecord
  1
5
  1
*5
  1
*
  1
*
 70
     0
  1
*
  1
*
  0
XRECORD
  5
3660C
102
{ACAD_REACTORS
330
36602
102
}
330
36602
100
AcDbXrecord
  1
7
  1
*7
  1
*
  1
*
 70
     0
  1
*
  1
*
  0
XRECORD
  5
3660D
102
{ACAD_REACTORS
330
36602
102
}
330
36602
100
AcDbXrecord
  1
kiseki
  1
kiseki*
  1
*
  1
*
 70
     0
  1
*
  1
*
  0
ENDSEC
  0
EOF
