  0
SECTION
  2
HEADER
  9
$ACADVER
  1
AC1014
  9
$ACADMAINTVER
 70
     9
  9
$DWGCODEPAGE
  3
ANSI_932
  9
$INSBASE
 10
0.0
 20
0.0
 30
0.0
  9
$EXTMIN
 10
-201.905834772879
 20
-26.43372197393455
 30
0.0
  9
$EXTMAX
 10
384.2369104394092
 20
393.4888193878365
 30
0.0
  9
$LIMMIN
 10
0.0
 20
0.0
  9
$LIMMAX
 10
420.0
 20
297.0
  9
$ORTHOMODE
 70
     0
  9
$REGENMODE
 70
     1
  9
$FILLMODE
 70
     1
  9
$QTEXTMODE
 70
     0
  9
$MIRRTEXT
 70
     0
  9
$DRAGMODE
 70
     2
  9
$LTSCALE
 40
20.0
  9
$OSMODE
 70
    37
  9
$ATTMODE
 70
     1
  9
$TEXTSIZE
 40
2.5
  9
$TRACEWID
 40
1.0
  9
$TEXTSTYLE
  7
STANDARD
  9
$CLAYER
  8
文字
  9
$CELTYPE
  6
BYLAYER
  9
$CECOLOR
 62
   256
  9
$CELTSCALE
 40
1.0
  9
$DELOBJ
 70
     1
  9
$DISPSILH
 70
     0
  9
$DIMSCALE
 40
2.0
  9
$DIMASZ
 40
3.5
  9
$DIMEXO
 40
1.0
  9
$DIMDLI
 40
6.5
  9
$DIMRND
 40
0.005
  9
$DIMDLE
 40
0.0
  9
$DIMEXE
 40
1.0
  9
$DIMTP
 40
0.0
  9
$DIMTM
 40
0.0
  9
$DIMTXT
 40
3.5
  9
$DIMCEN
 40
2.5
  9
$DIMTSZ
 40
0.0
  9
$DIMTOL
 70
     0
  9
$DIMLIM
 70
     0
  9
$DIMTIH
 70
     0
  9
$DIMTOH
 70
     0
  9
$DIMSE1
 70
     0
  9
$DIMSE2
 70
     0
  9
$DIMTAD
 70
     1
  9
$DIMZIN
 70
     9
  9
$DIMBLK
  1
OPEN30
  9
$DIMASO
 70
     1
  9
$DIMSHO
 70
     1
  9
$DIMPOST
  1

  9
$DIMAPOST
  1

  9
$DIMALT
 70
     0
  9
$DIMALTD
 70
     4
  9
$DIMALTF
 40
0.0394
  9
$DIMLFAC
 40
1.0
  9
$DIMTOFL
 70
     1
  9
$DIMTVP
 40
0.0
  9
$DIMTIX
 70
     0
  9
$DIMSOXD
 70
     0
  9
$DIMSAH
 70
     0
  9
$DIMBLK1
  1
OPEN30
  9
$DIMBLK2
  1
OPEN
  9
$DIMSTYLE
  2
STD_M_
  9
$DIMCLRD
 70
     3
  9
$DIMCLRE
 70
     3
  9
$DIMCLRT
 70
     2
  9
$DIMTFAC
 40
1.0
  9
$DIMGAP
 40
0.75
  9
$DIMJUST
 70
     0
  9
$DIMSD1
 70
     0
  9
$DIMSD2
 70
     0
  9
$DIMTOLJ
 70
     1
  9
$DIMTZIN
 70
     9
  9
$DIMALTZ
 70
     0
  9
$DIMALTTZ
 70
     0
  9
$DIMFIT
 70
     3
  9
$DIMUPT
 70
     0
  9
$DIMUNIT
 70
     2
  9
$DIMDEC
 70
     2
  9
$DIMTDEC
 70
     2
  9
$DIMALTU
 70
     8
  9
$DIMALTTD
 70
     4
  9
$DIMTXSTY
  7
STANDARD
  9
$DIMAUNIT
 70
     0
  9
$LUNITS
 70
     2
  9
$LUPREC
 70
     4
  9
$SKETCHINC
 40
1.0
  9
$FILLETRAD
 40
10.0
  9
$AUNITS
 70
     0
  9
$AUPREC
 70
     0
  9
$MENU
  1
.
  9
$ELEVATION
 40
0.0
  9
$PELEVATION
 40
0.0
  9
$THICKNESS
 40
0.0
  9
$LIMCHECK
 70
     0
  9
$BLIPMODE
 70
     0
  9
$CHAMFERA
 40
0.5
  9
$CHAMFERB
 40
0.5
  9
$CHAMFERC
 40
20.0
  9
$CHAMFERD
 40
0.0
  9
$SKPOLY
 70
     0
  9
$TDCREATE
 40
2451224.660162384
  9
$TDUPDATE
 40
2455573.643349247
  9
$TDINDWG
 40
14.8993737384
  9
$TDUSRTIMER
 40
14.8993735532
  9
$USRTIMER
 70
     1
  9
$ANGBASE
 50
0.0
  9
$ANGDIR
 70
     0
  9
$PDMODE
 70
     0
  9
$PDSIZE
 40
0.0
  9
$PLINEWID
 40
0.0
  9
$COORDS
 70
     0
  9
$SPLFRAME
 70
     0
  9
$SPLINETYPE
 70
     6
  9
$SPLINESEGS
 70
     8
  9
$ATTDIA
 70
     0
  9
$ATTREQ
 70
     1
  9
$HANDLING
 70
-16383
  9
$HANDSEED
  5
29382
  9
$SURFTAB1
 70
     6
  9
$SURFTAB2
 70
     6
  9
$SURFTYPE
 70
     6
  9
$SURFU
 70
     6
  9
$SURFV
 70
     6
  9
$UCSNAME
  2

  9
$UCSORG
 10
0.0
 20
0.0
 30
0.0
  9
$UCSXDIR
 10
1.0
 20
0.0
 30
0.0
  9
$UCSYDIR
 10
0.0
 20
1.0
 30
0.0
  9
$PUCSNAME
  2

  9
$PUCSORG
 10
0.0
 20
0.0
 30
0.0
  9
$PUCSXDIR
 10
1.0
 20
0.0
 30
0.0
  9
$PUCSYDIR
 10
0.0
 20
1.0
 30
0.0
  9
$USERI1
 70
     0
  9
$USERI2
 70
     0
  9
$USERI3
 70
     0
  9
$USERI4
 70
     0
  9
$USERI5
 70
     0
  9
$USERR1
 40
0.0
  9
$USERR2
 40
0.0
  9
$USERR3
 40
0.0
  9
$USERR4
 40
0.0
  9
$USERR5
 40
0.0
  9
$WORLDVIEW
 70
     1
  9
$SHADEDGE
 70
     3
  9
$SHADEDIF
 70
    70
  9
$TILEMODE
 70
     0
  9
$MAXACTVP
 70
    48
  9
$PINSBASE
 10
0.0
 20
0.0
 30
0.0
  9
$PLIMCHECK
 70
     0
  9
$PEXTMIN
 10
0.0
 20
0.0
 30
0.0
  9
$PEXTMAX
 10
400.0
 20
288.0
 30
0.0
  9
$PLIMMIN
 10
-7.932546127246732
 20
-4.341260008312268
  9
$PLIMMAX
 10
418.146035617237
 20
296.9203530796676
  9
$UNITMODE
 70
     0
  9
$VISRETAIN
 70
     1
  9
$PLINEGEN
 70
     0
  9
$PSLTSCALE
 70
     0
  9
$TREEDEPTH
 70
  3020
  9
$PICKSTYLE
 70
     0
  9
$CMLSTYLE
  2
STANDARD
  9
$CMLJUST
 70
     0
  9
$CMLSCALE
 40
20.0
  9
$PROXYGRAPHICS
 70
     1
  9
$MEASUREMENT
 70
     0
  0
ENDSEC
  0
SECTION
  2
CLASSES
  0
CLASS
  1
HATCH
  2
AcDbHatch
  3
AutoCAD 2000
 90
        0
280
     0
281
     1
  0
CLASS
  1
LWPOLYLINE
  2
AcDbPolyline
  3
AutoCAD 2000
 90
        0
280
     0
281
     1
  0
CLASS
  1
ACDBDICTIONARYWDFLT
  2
AcDbDictionaryWithDefault
  3
AutoCAD 2000
 90
        0
280
     0
281
     0
  0
CLASS
  1
ACDBPLACEHOLDER
  2
AcDbPlaceHolder
  3
AutoCAD 2000
 90
        0
280
     0
281
     0
  0
CLASS
  1
LAYOUT
  2
AcDbLayout
  3
AutoCAD 2000
 90
        0
280
     0
281
     0
  0
CLASS
  1
LONG_TRANSACTION
  2
AcDbLongTransaction
  3
AutoCAD 2000
 90
        0
280
     0
281
     0
  0
CLASS
  1
LWPOLYLINE
  2
AcDbPolyline
  3
AutoCAD 2000
 90
        0
280
     0
281
     1
  0
CLASS
  1
HATCH
  2
AcDbHatch
  3
AutoCAD 2000
 90
        0
280
     0
281
     1
  0
CLASS
  1
XRECORD
  2
AcDbXrecord
  3
AutoCAD 2000
 90
        0
280
     0
281
     0
  0
CLASS
  1
DICTIONARYVAR
  2
AcDbDictionaryVar
  3
AutoCAD 2000
 90
        0
280
     0
281
     0
  0
CLASS
  1
LONG_TRANSACTION
  2
AcDbLongTransaction
  3
AutoCAD 2000
 90
        0
280
     0
281
     0
  0
CLASS
  1
LWPOLYLINE
  2
AcDbPolyline
  3
AutoCAD 2000
 90
        0
280
     0
281
     1
  0
CLASS
  1
HATCH
  2
AcDbHatch
  3
AutoCAD 2000
 90
        0
280
     0
281
     1
  0
CLASS
  1
XRECORD
  2
AcDbXrecord
  3
AutoCAD 2000
 90
        0
280
     0
281
     0
  0
ENDSEC
  0
SECTION
  2
TABLES
  0
TABLE
  2
VPORT
  5
8
330
0
100
AcDbSymbolTable
 70
     2
  0
VPORT
  5
2933B
330
8
100
AcDbSymbolTableRecord
100
AcDbViewportTableRecord
  2
*ACTIVE
 70
     0
 10
0.0
 20
0.0
 11
1.0
 21
1.0
 12
91.5941521837924
 22
183.5173083621814
 13
0.0
 23
0.0
 14
10.0
 24
10.0
 15
10.0
 25
10.0
 16
0.0
 26
0.0
 36
1.0
 17
0.0
 27
0.0
 37
0.0
 40
423.1506279638319
 41
1.527918781725888
 42
50.0
 43
0.0
 44
0.0
 50
0.0
 51
0.0
 71
     0
 72
   100
 73
     1
 74
     0
 75
     0
 76
     0
 77
     0
 78
     0
  0
ENDTAB
  0
TABLE
  2
LTYPE
  5
5
330
0
100
AcDbSymbolTable
 70
     7
  0
LTYPE
  5
12
330
5
100
AcDbSymbolTableRecord
100
AcDbLinetypeTableRecord
  2
BYBLOCK
 70
     0
  3

 72
    65
 73
     0
 40
0.0
  0
LTYPE
  5
13
330
5
100
AcDbSymbolTableRecord
100
AcDbLinetypeTableRecord
  2
BYLAYER
 70
     0
  3

 72
    65
 73
     0
 40
0.0
  0
LTYPE
  5
14
330
5
100
AcDbSymbolTableRecord
100
AcDbLinetypeTableRecord
  2
CONTINUOUS
 70
     0
  3
Solid line
 72
    65
 73
     0
 40
0.0
  0
LTYPE
  5
126C
330
5
100
AcDbSymbolTableRecord
100
AcDbLinetypeTableRecord
  2
CENTER
 70
     0
  3
____ _ ____ _ ____ _ ____ _ ____ _ ____ _ ____
 72
    65
 73
     4
 40
2.0
 49
1.25
 74
     0
 49
-0.25
 74
     0
 49
0.25
 74
     0
 49
-0.25
 74
     0
  0
LTYPE
  5
126E
330
5
100
AcDbSymbolTableRecord
100
AcDbLinetypeTableRecord
  2
DASHDOT
 70
     0
  3
__ . __ . __ . __ . __ . __ . __ . __ . __ . __
 72
    65
 73
     4
 40
1.0
 49
0.5
 74
     0
 49
-0.25
 74
     0
 49
0.0
 74
     0
 49
-0.25
 74
     0
  0
LTYPE
  5
15420
330
5
100
AcDbSymbolTableRecord
100
AcDbLinetypeTableRecord
  2
CENTER2
 70
     0
  3
Center (.5x) ___ _ ___ _ ___ _ ___ _ ___ _ ___
 72
    65
 73
     4
 40
1.125
 49
0.75
 74
     0
 49
-0.125
 74
     0
 49
0.125
 74
     0
 49
-0.125
 74
     0
  0
LTYPE
  5
15421
330
5
100
AcDbSymbolTableRecord
100
AcDbLinetypeTableRecord
  2
PHANTOM2
 70
     0
  3
Phantom (.5x) ___ _ _ ___ _ _ ___ _ _ ___ _ _
 72
    65
 73
     6
 40
1.25
 49
0.625
 74
     0
 49
-0.125
 74
     0
 49
0.125
 74
     0
 49
-0.125
 74
     0
 49
0.125
 74
     0
 49
-0.125
 74
     0
  0
LTYPE
  5
21602
330
5
100
AcDbSymbolTableRecord
100
AcDbLinetypeTableRecord
  2
HIDDEN2
 70
     0
  3
Hidden (.5x) _ _ _ _ _ _ _ _ _ _ _ _ _ _ _ _ _
 72
    65
 73
     2
 40
0.1875
 49
0.125
 74
     0
 49
-0.0625
 74
     0
  0
LTYPE
  5
27F74
330
5
100
AcDbSymbolTableRecord
100
AcDbLinetypeTableRecord
  2
PHANTOM
 70
     0
  3
Phantom ______  __  __  ______  __  __  ______
 72
    65
 73
     6
 40
2.5
 49
1.25
 74
     0
 49
-0.25
 74
     0
 49
0.25
 74
     0
 49
-0.25
 74
     0
 49
0.25
 74
     0
 49
-0.25
 74
     0
  0
ENDTAB
  0
TABLE
  2
LAYER
  5
2
102
{ACAD_XDICTIONARY
360
290CB
102
}
330
0
100
AcDbSymbolTable
 70
    17
  0
LAYER
  5
E
330
2
100
AcDbSymbolTableRecord
100
AcDbLayerTableRecord
  2
0
 70
     2
 62
     7
  6
CONTINUOUS
  0
LAYER
  5
2C
330
2
100
AcDbSymbolTableRecord
100
AcDbLayerTableRecord
  2
M_VIEW
 70
     4
 62
    -1
  6
CONTINUOUS
  0
LAYER
  5
30
330
2
100
AcDbSymbolTableRecord
100
AcDbLayerTableRecord
  2
FRAME025
 70
     0
 62
     7
  6
CONTINUOUS
  0
LAYER
  5
12B
330
2
100
AcDbSymbolTableRecord
100
AcDbLayerTableRecord
  2
DEFPOINTS
 70
     4
 62
    -7
  6
CONTINUOUS
  0
LAYER
  5
651
330
2
100
AcDbSymbolTableRecord
100
AcDbLayerTableRecord
  2
FRAME020
 70
     0
 62
     7
  6
CONTINUOUS
  0
LAYER
  5
1271
330
2
100
AcDbSymbolTableRecord
100
AcDbLayerTableRecord
  2
A
 70
     0
 62
     7
  6
CONTINUOUS
  0
LAYER
  5
A9BB
330
2
100
AcDbSymbolTableRecord
100
AcDbLayerTableRecord
  2
文字
 70
     0
 62
     7
  6
CONTINUOUS
  0
LAYER
  5
122DE
330
2
100
AcDbSymbolTableRecord
100
AcDbLayerTableRecord
  2
DIMENSION
 70
     0
 62
     7
  6
CONTINUOUS
  0
LAYER
  5
15422
330
2
100
AcDbSymbolTableRecord
100
AcDbLayerTableRecord
  2
細線
 70
     0
 62
     7
  6
CONTINUOUS
  0
LAYER
  5
15423
330
2
100
AcDbSymbolTableRecord
100
AcDbLayerTableRecord
  2
CENTER
 70
     0
 62
     7
  6
CENTER
  0
LAYER
  5
15425
330
2
100
AcDbSymbolTableRecord
100
AcDbLayerTableRecord
  2
中心線
 70
     0
 62
     7
  6
CENTER2
  0
LAYER
  5
15426
330
2
100
AcDbSymbolTableRecord
100
AcDbLayerTableRecord
  2
仮想線
 70
     0
 62
     7
  6
PHANTOM2
  0
LAYER
  5
21603
330
2
100
AcDbSymbolTableRecord
100
AcDbLayerTableRecord
  2
破線
 70
     0
 62
     7
  6
HIDDEN2
  0
LAYER
  5
27A32
330
2
100
AcDbSymbolTableRecord
100
AcDbLayerTableRecord
  2
ｷｬｯﾌ_ﾎ_ﾙﾄ
 70
     0
 62
     7
  6
CONTINUOUS
  0
LAYER
  5
27F75
330
2
100
AcDbSymbolTableRecord
100
AcDbLayerTableRecord
  2
２点鎖線
 70
     0
 62
     7
  6
PHANTOM
  0
ENDTAB
  0
TABLE
  2
STYLE
  5
3
330
0
100
AcDbSymbolTable
 70
     5
  0
STYLE
  5
F
330
3
100
AcDbSymbolTableRecord
100
AcDbTextStyleTableRecord
  2
STANDARD
 70
     0
 40
0.0
 41
1.0
 50
0.0
 71
     0
 42
2.5
  3
isocp.shx
  4
bigfont.shx
  0
STYLE
  5
35
330
3
100
AcDbSymbolTableRecord
100
AcDbTextStyleTableRecord
  2
MSｺ_ｼｯｸ
 70
     0
 40
0.0
 41
1.0
 50
0.0
 71
     0
 42
5.0
  3
MS Gothic.ttf
  4

1001
ACAD
1000
MS Gothic
1071
    32817
  0
STYLE
  5
1275
330
3
100
AcDbSymbolTableRecord
100
AcDbTextStyleTableRecord
  2
BIGFONT
 70
     0
 40
2.0
 41
1.0
 50
0.0
 71
     0
 42
2.0
  3
txt.shx
  4
bigfont.shx
  0
ENDTAB
  0
TABLE
  2
VIEW
  5
6
330
0
100
AcDbSymbolTable
 70
     0
  0
ENDTAB
  0
TABLE
  2
UCS
  5
7
330
0
100
AcDbSymbolTable
 70
     0
  0
ENDTAB
  0
TABLE
  2
APPID
  5
9
330
0
100
AcDbSymbolTable
 70
     3
  0
APPID
  5
10
330
9
100
AcDbSymbolTableRecord
100
AcDbRegAppTableRecord
  2
ACAD
 70
     0
  0
APPID
  5
F013
330
9
100
AcDbSymbolTableRecord
100
AcDbRegAppTableRecord
  2
CONTENTBLOCKDESCRIPTION
 70
     0
  0
APPID
  5
F014
330
9
100
AcDbSymbolTableRecord
100
AcDbRegAppTableRecord
  2
CONTENTBLOCKICON
 70
     0
  0
ENDTAB
  0
TABLE
  2
DIMSTYLE
  5
A
330
0
100
AcDbSymbolTable
 70
     3
  0
DIMSTYLE
105
1D
330
A
100
AcDbSymbolTableRecord
100
AcDbDimStyleTableRecord
  2
STANDARD
 70
     0
  3

  4

  5

  6

  7

 40
1.0
 41
0.18
 42
0.0625
 43
0.38
 44
0.18
 45
0.0
 46
0.0
 47
0.0
 48
0.0
140
0.18
141
0.09
142
0.0
143
25.4
144
1.0
145
0.0
146
1.0
147
0.09
 71
     0
 72
     0
 73
     1
 74
     1
 75
     0
 76
     0
 77
     0
 78
     0
170
     0
171
     2
172
     0
173
     0
174
     0
175
     0
176
     0
177
     0
178
     0
270
     2
271
     4
272
     4
273
     2
274
     2
340
F
275
     0
280
     0
281
     0
282
     0
283
     1
284
     0
285
     0
286
     0
287
     3
288
     0
  0
DIMSTYLE
105
1542A
102
{ACAD_REACTORS
330
24F18
330
236B5
330
247AC
330
258DD
330
247B9
330
291A9
330
291AC
102
}
330
A
100
AcDbSymbolTableRecord
100
AcDbDimStyleTableRecord
  2
STD_M_
 70
     0
  3

  4

  5
OPEN30
  6
OPEN30
  7
OPEN
 40
2.0
 41
3.5
 42
1.0
 43
6.5
 44
1.0
 45
0.005
 46
0.0
 47
0.0
 48
0.0
140
3.5
141
2.5
142
0.0
143
0.0394
144
1.0
145
0.0
146
1.0
147
0.75
 71
     0
 72
     0
 73
     0
 74
     0
 75
     0
 76
     0
 77
     1
 78
     9
170
     0
171
     4
172
     1
173
     0
174
     0
175
     0
176
     3
177
     3
178
     2
270
     2
271
     2
272
     2
273
     8
274
     4
340
F
275
     0
280
     0
281
     0
282
     0
283
     1
284
     9
285
     0
286
     0
287
     3
288
     0
  0
ENDTAB
  0
TABLE
  2
BLOCK_RECORD
  5
1
330
0
100
AcDbSymbolTable
 70
    42
  0
BLOCK_RECORD
  5
18
102
{ACAD_XDICTIONARY
360
EFC6
102
}
330
1
100
AcDbSymbolTableRecord
100
AcDbBlockTableRecord
  2
*MODEL_SPACE
  0
BLOCK_RECORD
  5
15
102
{ACAD_XDICTIONARY
360
EFC4
102
}
330
1
100
AcDbSymbolTableRecord
100
AcDbBlockTableRecord
  2
*PAPER_SPACE
  0
BLOCK_RECORD
  5
115C
330
1
100
AcDbSymbolTableRecord
100
AcDbBlockTableRecord
  2
機械A4横_LBP
  0
BLOCK_RECORD
  5
1215D
330
1
100
AcDbSymbolTableRecord
100
AcDbBlockTableRecord
  2
_OPEN30
  0
BLOCK_RECORD
  5
15351
330
1
100
AcDbSymbolTableRecord
100
AcDbBlockTableRecord
  2
_OPEN
  0
BLOCK_RECORD
  5
153E2
330
1
100
AcDbSymbolTableRecord
100
AcDbBlockTableRecord
  2
_DOTSMALL
  0
ENDTAB
  0
ENDSEC
  0
SECTION
  2
BLOCKS
  0
BLOCK
  5
19
330
18
100
AcDbEntity
  8
0
100
AcDbBlockBegin
  2
*MODEL_SPACE
 70
     0
 10
0.0
 20
0.0
 30
0.0
  3
*MODEL_SPACE
  1

  0
ENDBLK
  5
1A
330
18
100
AcDbEntity
  8
0
100
AcDbBlockEnd
  0
BLOCK
  5
16
330
15
100
AcDbEntity
 67
     1
  8
0
100
AcDbBlockBegin
  2
*PAPER_SPACE
 70
     0
 10
0.0
 20
0.0
 30
0.0
  3
*PAPER_SPACE
  1

  0
ENDBLK
  5
17
330
15
100
AcDbEntity
 67
     1
  8
0
100
AcDbBlockEnd
  0
BLOCK
  5
115D
330
115C
100
AcDbEntity
  8
0
100
AcDbBlockBegin
  2
機械A4横_LBP
 70
     0
 10
0.0
 20
0.0
 30
0.0
  3
機械A4横_LBP
  1

  0
ENDBLK
  5
115E
330
115C
100
AcDbEntity
  8
0
100
AcDbBlockEnd
  0
BLOCK
  5
12161
330
1215D
100
AcDbEntity
  8
0
100
AcDbBlockBegin
  2
_OPEN30
 70
     0
 10
0.0
 20
0.0
 30
0.0
  3
_OPEN30
  1

  0
LINE
  5
1215E
330
1215D
100
AcDbEntity
  8
0
  6
BYBLOCK
 62
     0
100
AcDbLine
 10
-1.0
 20
0.26794919
 30
0.0
 11
0.0
 21
0.0
 31
0.0
  0
LINE
  5
1215F
330
1215D
100
AcDbEntity
  8
0
  6
BYBLOCK
 62
     0
100
AcDbLine
 10
0.0
 20
0.0
 30
0.0
 11
-1.0
 21
-0.26794919
 31
0.0
  0
LINE
  5
12160
330
1215D
100
AcDbEntity
  8
0
  6
BYBLOCK
 62
     0
100
AcDbLine
 10
0.0
 20
0.0
 30
0.0
 11
-1.0
 21
0.0
 31
0.0
  0
ENDBLK
  5
12162
330
1215D
100
AcDbEntity
  8
0
100
AcDbBlockEnd
  0
BLOCK
  5
15355
330
15351
100
AcDbEntity
  8
0
100
AcDbBlockBegin
  2
_OPEN
 70
     0
 10
0.0
 20
0.0
 30
0.0
  3
_OPEN
  1

  0
LINE
  5
15352
330
15351
100
AcDbEntity
  8
0
  6
BYBLOCK
 62
     0
100
AcDbLine
 10
-1.0
 20
0.1666666666666666
 30
0.0
 11
0.0
 21
0.0
 31
0.0
  0
LINE
  5
15353
330
15351
100
AcDbEntity
  8
0
  6
BYBLOCK
 62
     0
100
AcDbLine
 10
-1.0
 20
-0.1666666666666666
 30
0.0
 11
0.0
 21
0.0
 31
0.0
  0
LINE
  5
15354
330
15351
100
AcDbEntity
  8
0
  6
BYBLOCK
 62
     0
100
AcDbLine
 10
0.0
 20
0.0
 30
0.0
 11
-1.0
 21
0.0
 31
0.0
  0
ENDBLK
  5
15356
330
15351
100
AcDbEntity
  8
0
100
AcDbBlockEnd
  0
BLOCK
  5
153E4
330
153E2
100
AcDbEntity
  8
0
100
AcDbBlockBegin
  2
_DOTSMALL
 70
     0
 10
0.0
 20
0.0
 30
0.0
  3
_DOTSMALL
  1

  0
LWPOLYLINE
  5
153E3
330
153E2
100
AcDbEntity
  8
0
  6
BYBLOCK
 62
     0
100
AcDbPolyline
 90
        2
 70
     1
 43
0.5
 10
-0.0625
 20
0.0
 42
1.0
 10
0.0625
 20
0.0
 42
1.0
  0
ENDBLK
  5
153E5
330
153E2
100
AcDbEntity
  8
0
100
AcDbBlockEnd
  0
ENDSEC
  0
SECTION
  2
ENTITIES
  0
INSERT
  5
1160
330
18
100
AcDbEntity
  8
FRAME025
100
AcDbBlockReference
  2
機械A4横_LBP
 10
66.00059629174575
 20
114.4379043572399
 30
0.0
  0
MTEXT
  5
1405
330
18
100
AcDbEntity
  8
0
  6
DASHDOT
100
AcDbMText
 10
163.682726410024
 20
430.5785054452221
 30
0.0
 40
1.0
 41
2.0
 71
     1
 72
     5
  1

  7
BIGFONT
1001
ACAD
1000
MTEXTBEGIN
1070
    73
1070
     1
1070
    44
1040
1.0
1070
    74
1070
     0
1000
MTEXTEND
1000
MTEXTBEGIN
1070
    73
1070
     1
1070
    44
1040
1.0
1070
    74
1070
     0
1000
MTEXTEND
  0
MTEXT
  5
1406
330
18
100
AcDbEntity
  8
0
  6
CENTER
100
AcDbMText
 10
401.3606673541956
 20
323.7890106174461
 30
0.0
 40
2.0
 41
15.6417
 71
     1
 72
     5
  1

  7
BIGFONT
1001
ACAD
1000
MTEXTBEGIN
1070
    73
1070
     1
1070
    44
1040
1.0
1070
    74
1070
     0
1000
MTEXTEND
1000
MTEXTBEGIN
1070
    73
1070
     1
1070
    44
1040
1.0
1070
    74
1070
     0
1000
MTEXTEND
  0
MTEXT
  5
1407
330
18
100
AcDbEntity
  8
0
100
AcDbMText
 10
75.77239017043272
 20
222.8564838730205
 30
0.0
 40
2.0
 41
0.0
 71
     1
 72
     5
  1

1001
ACAD
1000
MTEXTBEGIN
1070
    73
1070
     1
1070
    44
1040
1.0
1070
    74
1070
     0
1000
MTEXTEND
1000
MTEXTBEGIN
1070
    73
1070
     1
1070
    44
1040
1.0
1070
    74
1070
     0
1000
MTEXTEND
  0
MTEXT
  5
1408
330
18
100
AcDbEntity
  8
0
100
AcDbMText
 10
120.1718819235825
 20
254.48796746601
 30
0.0
 40
2.0
 41
10.1453
 71
     1
 72
     5
  1

 11
-0.0000000000000002
 21
-1.0
 31
0.0
1001
ACAD
1000
MTEXTBEGIN
1070
    73
1070
     1
1070
    44
1040
1.0
1070
    74
1070
     0
1000
MTEXTEND
1000
MTEXTBEGIN
1070
    73
1070
     1
1070
    44
1040
1.0
1070
    74
1070
     0
1000
MTEXTEND
  0
MTEXT
  5
142F
330
18
100
AcDbEntity
  8
0
  6
BYBLOCK
100
AcDbMText
 10
155.9513799082503
 20
329.2674780082993
 30
0.0
 40
2.0
 41
0.0
 71
     7
 72
     5
  1

 11
0.0000000000000001
 21
1.0
 31
0.0
1001
ACAD
1000
MTEXTBEGIN
1070
    73
1070
     1
1070
    44
1040
1.0
1070
    74
1070
     0
1000
MTEXTEND
1000
MTEXTBEGIN
1070
    73
1070
     1
1070
    44
1040
1.0
1070
    74
1070
     0
1000
MTEXTEND
  0
MTEXT
  5
1430
330
18
100
AcDbEntity
  8
0
  6
BYBLOCK
100
AcDbMText
 10
120.4859915450975
 20
340.0607863667167
 30
0.0
 40
2.0
 41
0.0
 71
     4
 72
     5
  1

 11
-0.0000000000000002
 21
-1.0
 31
0.0
1001
ACAD
1000
MTEXTBEGIN
1070
    73
1070
     1
1070
    44
1040
1.0
1070
    74
1070
     0
1000
MTEXTEND
1000
MTEXTBEGIN
1070
    73
1070
     1
1070
    44
1040
1.0
1070
    74
1070
     0
1000
MTEXTEND
  0
MTEXT
  5
1532
330
18
100
AcDbEntity
  8
0
  6
DASHDOT
100
AcDbMText
 10
163.6828134149741
 20
430.5785054452221
 30
0.0
 40
1.0
 41
2.0
 71
     1
 72
     5
  1

  7
BIGFONT
1001
ACAD
1000
MTEXTBEGIN
1070
    73
1070
     1
1070
    44
1040
1.0
1070
    74
1070
     0
1000
MTEXTEND
1000
MTEXTBEGIN
1070
    73
1070
     1
1070
    44
1040
1.0
1070
    74
1070
     0
1000
MTEXTEND
  0
MTEXT
  5
1533
330
18
100
AcDbEntity
  8
0
  6
CENTER
100
AcDbMText
 10
401.360754359146
 20
323.7890106174461
 30
0.0
 40
2.0
 41
15.6417
 71
     1
 72
     5
  1

  7
BIGFONT
1001
ACAD
1000
MTEXTBEGIN
1070
    73
1070
     1
1070
    44
1040
1.0
1070
    74
1070
     0
1000
MTEXTEND
1000
MTEXTBEGIN
1070
    73
1070
     1
1070
    44
1040
1.0
1070
    74
1070
     0
1000
MTEXTEND
  0
MTEXT
  5
1534
330
18
100
AcDbEntity
  8
0
100
AcDbMText
 10
75.77247717538298
 20
222.8564838730205
 30
0.0
 40
2.0
 41
0.0
 71
     1
 72
     5
  1

1001
ACAD
1000
MTEXTBEGIN
1070
    73
1070
     1
1070
    44
1040
1.0
1070
    74
1070
     0
1000
MTEXTEND
1000
MTEXTBEGIN
1070
    73
1070
     1
1070
    44
1040
1.0
1070
    74
1070
     0
1000
MTEXTEND
  0
MTEXT
  5
1535
330
18
100
AcDbEntity
  8
0
100
AcDbMText
 10
120.1719689285329
 20
254.48796746601
 30
0.0
 40
2.0
 41
10.1453
 71
     1
 72
     5
  1

 11
-0.0000000000000002
 21
-1.0
 31
0.0
1001
ACAD
1000
MTEXTBEGIN
1070
    73
1070
     1
1070
    44
1040
1.0
1070
    74
1070
     0
1000
MTEXTEND
1000
MTEXTBEGIN
1070
    73
1070
     1
1070
    44
1040
1.0
1070
    74
1070
     0
1000
MTEXTEND
  0
MTEXT
  5
155C
330
18
100
AcDbEntity
  8
0
  6
BYBLOCK
100
AcDbMText
 10
155.9514669132003
 20
329.2674780082993
 30
0.0
 40
2.0
 41
0.0
 71
     7
 72
     5
  1

 11
0.0000000000000001
 21
1.0
 31
0.0
1001
ACAD
1000
MTEXTBEGIN
1070
    73
1070
     1
1070
    44
1040
1.0
1070
    74
1070
     0
1000
MTEXTEND
1000
MTEXTBEGIN
1070
    73
1070
     1
1070
    44
1040
1.0
1070
    74
1070
     0
1000
MTEXTEND
  0
MTEXT
  5
155D
330
18
100
AcDbEntity
  8
0
  6
BYBLOCK
100
AcDbMText
 10
120.4860785500478
 20
340.0607863667167
 30
0.0
 40
2.0
 41
0.0
 71
     4
 72
     5
  1

 11
-0.0000000000000002
 21
-1.0
 31
0.0
1001
ACAD
1000
MTEXTBEGIN
1070
    73
1070
     1
1070
    44
1040
1.0
1070
    74
1070
     0
1000
MTEXTEND
1000
MTEXTBEGIN
1070
    73
1070
     1
1070
    44
1040
1.0
1070
    74
1070
     0
1000
MTEXTEND
  0
TEXT
  5
2279
330
18
100
AcDbEntity
  8
A
100
AcDbText
 10
-37.81881037320381
 20
322.0637567728283
 30
0.0
 40
3.524999999999999
  1
�    
100
AcDbText
  0
TEXT
  5
2283
330
18
100
AcDbEntity
  8
A
100
AcDbText
 10
-185.7439103235753
 20
-107.9032633455339
 30
0.0
 40
2.5
  1

 41
0.5
  7
MSｺ_ｼｯｸ
100
AcDbText
  0
TEXT
  5
2293
330
18
100
AcDbEntity
  8
A
100
AcDbText
 10
-177.9189103235753
 20
-107.9032633455339
 30
0.0
 40
2.5
  1

  7
MSｺ_ｼｯｸ
100
AcDbText
  0
LINE
  5
236CE
330
18
100
AcDbEntity
  8
中心線
100
AcDbLine
 10
54.94014639704733
 20
195.0309609297086
 30
0.0
 11
54.94014639704733
 21
385.0309609297092
 31
0.0
  0
LINE
  5
236E2
330
18
100
AcDbEntity
  8
0
100
AcDbLine
 10
-16.55985360295264
 20
203.5309609297089
 30
0.0
 11
34.42283663187604
 21
203.5309609297092
 31
0.0
  0
LINE
  5
236EA
330
18
100
AcDbEntity
  8
0
100
AcDbLine
 10
-63.00894885478669
 20
242.5309609264092
 30
0.0
 11
-156.3246419656304
 21
242.5309609264092
 31
0.0
  0
LINE
  5
236EB
330
18
100
AcDbEntity
  8
0
100
AcDbLine
 10
-63.00894885478669
 20
237.5309609330091
 30
0.0
 11
-156.3246419656304
 21
237.5309609330091
 31
0.0
  0
LINE
  5
236FB
330
18
100
AcDbEntity
  8
0
100
AcDbLine
 10
-156.3246419656304
 20
237.530960933011
 30
0.0
 11
-156.3246419656304
 21
242.530960926411
 31
0.0
  0
ARC
  5
236FF
330
18
100
AcDbEntity
  8
細線
100
AcDbCircle
 10
-61.60382630139292
 20
238.780960931359
 30
0.0
 40
1.880656636903949
100
AcDbArc
 50
138.3436407292487
 51
221.656359270751
  0
ARC
  5
23700
330
18
100
AcDbEntity
  8
細線
100
AcDbCircle
 10
-64.41407140818046
 20
241.280960928059
 30
0.0
 40
1.880656636903949
100
AcDbArc
 50
318.3436407292488
 51
41.6563592707512
  0
ARC
  5
23701
330
18
100
AcDbEntity
  8
細線
100
AcDbCircle
 10
-64.41407140818046
 20
238.780960931359
 30
0.0
 40
1.880656636903949
100
AcDbArc
 50
318.3436407292488
 51
41.6563592707512
  0
LINE
  5
2370B
330
18
100
AcDbEntity
  8
0
100
AcDbLine
 10
-51.05985360295267
 20
234.8023895011368
 30
0.0
 11
-51.05985360295267
 21
245.2595323582813
 31
0.0
  0
ARC
  5
2370C
330
18
100
AcDbEntity
  8
0
100
AcDbCircle
 10
-37.05985360295221
 20
240.0309609297091
 30
0.0
 40
10.50000000000042
100
AcDbArc
 50
154.7912347032419
 51
205.2087652967581
  0
LINE
  5
2370D
330
18
100
AcDbEntity
  8
0
100
AcDbLine
 10
-35.55985360295267
 20
229.5309609297091
 30
0.0
 11
-35.55985360295267
 21
250.5309609297091
 31
0.0
  0
LINE
  5
2370E
330
18
100
AcDbEntity
  8
0
100
AcDbLine
 10
-40.55985360295267
 20
229.5309609297091
 30
0.0
 11
-40.55985360295267
 21
250.5309609297091
 31
0.0
  0
LINE
  5
2370F
330
18
100
AcDbEntity
  8
0
100
AcDbLine
 10
-37.55985360295267
 20
230.5309609297089
 30
0.0
 11
-37.55985360295267
 21
249.5309609297091
 31
0.0
  0
LINE
  5
23710
330
18
100
AcDbEntity
  8
0
100
AcDbLine
 10
-47.55985360295244
 20
230.7023895011379
 30
0.0
 11
-47.55985360295267
 21
249.3595323582805
 31
0.0
  0
LINE
  5
23711
330
18
100
AcDbEntity
  8
0
100
AcDbLine
 10
-32.55985360295312
 20
250.5309609297091
 30
0.0
 11
-32.55985360295312
 21
229.5309609297091
 31
0.0
  0
LINE
  5
23712
330
18
100
AcDbEntity
  8
0
100
AcDbLine
 10
-31.55985360295267
 20
218.5309609297091
 30
0.0
 11
-31.55985360295267
 21
269.5136511645378
 31
0.0
  0
LINE
  5
23713
330
18
100
AcDbEntity
  8
0
100
AcDbLine
 10
-40.55985360295267
 20
235.5588249747095
 30
0.0
 11
-46.55985360295267
 21
235.5588249747095
 31
0.0
  0
LINE
  5
23714
330
18
100
AcDbEntity
  8
0
100
AcDbLine
 10
-40.55985360295267
 20
229.5309609297091
 30
0.0
 11
-46.55985360295267
 21
229.5309609297091
 31
0.0
  0
LINE
  5
23715
330
18
100
AcDbEntity
  8
0
100
AcDbLine
 10
-40.55985360295267
 20
234.0397875712568
 30
0.0
 11
-46.55985360295267
 21
234.0397875712568
 31
0.0
  0
LINE
  5
23716
330
18
100
AcDbEntity
  8
0
100
AcDbLine
 10
-51.05985360295267
 20
237.5309609330095
 30
0.0
 11
-61.11632925531012
 21
237.5309609330095
 31
0.0
  0
LINE
  5
23717
330
18
100
AcDbEntity
  8
0
100
AcDbLine
 10
-51.05985360295267
 20
242.5309609264095
 30
0.0
 11
-61.11632925531079
 21
242.5309609264095
 31
0.0
  0
ARC
  5
23718
330
18
100
AcDbEntity
  8
細線
100
AcDbCircle
 10
-59.71120670191635
 20
241.2809609280589
 30
0.0
 40
1.880656636903949
100
AcDbArc
 50
138.3436407292534
 51
221.6563592707466
  0
ARC
  5
23719
330
18
100
AcDbEntity
  8
細線
100
AcDbCircle
 10
-62.52145180870389
 20
241.2809609280589
 30
0.0
 40
1.880656636903949
100
AcDbArc
 50
318.3436407292533
 51
41.6563592707466
  0
ARC
  5
2371A
330
18
100
AcDbEntity
  8
細線
100
AcDbCircle
 10
-59.71120670191703
 20
238.7809609313589
 30
0.0
 40
1.880656636903949
100
AcDbArc
 50
138.3436407292534
 51
221.6563592707466
  0
ARC
  5
2371B
330
18
100
AcDbEntity
  8
0
100
AcDbCircle
 10
-38.58605708538289
 20
229.8320457431193
 30
0.0
 40
9.015903847971632
100
AcDbArc
 50
152.1795611441612
 51
174.4603666814936
  0
LINE
  5
2371C
330
18
100
AcDbEntity
  8
0
100
AcDbLine
 10
-46.55985360295267
 20
234.0397875712568
 30
0.0
 11
-46.55985360295267
 21
235.5588249747094
 31
0.0
  0
LINE
  5
2371D
330
18
100
AcDbEntity
  8
0
100
AcDbLine
 10
-46.55985360295221
 20
229.5309609297091
 30
0.0
 11
-51.05985360295267
 21
234.8023895011368
 31
0.0
  0
LINE
  5
23720
330
18
100
AcDbEntity
  8
0
100
AcDbLine
 10
-31.55985360295267
 20
231.0309609297092
 30
0.0
 11
-32.55985360295312
 21
231.0309609297092
 31
0.0
  0
LINE
  5
23721
330
18
100
AcDbEntity
  8
0
100
AcDbLine
 10
-32.55985360295312
 20
235.5588249747095
 30
0.0
 11
-35.55985360295267
 21
235.5588249747095
 31
0.0
  0
LINE
  5
23722
330
18
100
AcDbEntity
  8
0
100
AcDbLine
 10
-32.55985360295312
 20
229.5309609297091
 30
0.0
 11
-35.55985360295267
 21
229.5309609297091
 31
0.0
  0
LINE
  5
23723
330
18
100
AcDbEntity
  8
0
100
AcDbLine
 10
-37.55985360295267
 20
230.5309609297089
 30
0.0
 11
-40.55985360295267
 21
230.5309609297089
 31
0.0
  0
LINE
  5
23724
330
18
100
AcDbEntity
  8
0
100
AcDbLine
 10
-35.55985360295267
 20
232.6309609297095
 30
0.0
 11
-37.55985360295267
 21
232.6309609297095
 31
0.0
  0
LINE
  5
23725
330
18
100
AcDbEntity
  8
0
100
AcDbLine
 10
-32.55985360295312
 20
234.0397875712568
 30
0.0
 11
-35.55985360295267
 21
234.0397875712568
 31
0.0
  0
LINE
  5
23726
330
18
100
AcDbEntity
  8
0
100
AcDbLine
 10
-40.55985360295267
 20
250.5309609297091
 30
0.0
 11
-46.55985360295244
 21
250.5309609297091
 31
0.0
  0
LINE
  5
23727
330
18
100
AcDbEntity
  8
0
100
AcDbLine
 10
-46.55985360295267
 20
246.0221342881609
 30
0.0
 11
-40.55985360295267
 21
246.0221342881609
 31
0.0
  0
LINE
  5
23728
330
18
100
AcDbEntity
  8
0
100
AcDbLine
 10
-46.55985360295267
 20
244.5030968847088
 30
0.0
 11
-40.55985360295267
 21
244.5030968847088
 31
0.0
  0
LINE
  5
23729
330
18
100
AcDbEntity
  8
0
100
AcDbLine
 10
-46.55985360295267
 20
244.5030968847085
 30
0.0
 11
-46.55985360295267
 21
246.0221342881609
 31
0.0
  0
LINE
  5
2372A
330
18
100
AcDbEntity
  8
0
100
AcDbLine
 10
-46.55985360295244
 20
250.5309609297091
 30
0.0
 11
-51.05985360295267
 21
245.2595323582813
 31
0.0
  0
ARC
  5
2372B
330
18
100
AcDbEntity
  8
0
100
AcDbCircle
 10
-38.58605708538289
 20
250.229876116299
 30
0.0
 40
9.015903847971632
100
AcDbArc
 50
185.5396333185062
 51
207.8204388558385
  0
LINE
  5
2372C
330
18
100
AcDbEntity
  8
0
100
AcDbLine
 10
-31.55985360295267
 20
249.0309609297089
 30
0.0
 11
-32.55985360295335
 21
249.0309609297089
 31
0.0
  0
LINE
  5
2372D
330
18
100
AcDbEntity
  8
0
100
AcDbLine
 10
-37.55985360295267
 20
249.5309609297091
 30
0.0
 11
-40.55985360295267
 21
249.5309609297091
 31
0.0
  0
LINE
  5
2372E
330
18
100
AcDbEntity
  8
0
100
AcDbLine
 10
-32.55985360295312
 20
250.5309609297091
 30
0.0
 11
-35.55985360295267
 21
250.5309609297091
 31
0.0
  0
LINE
  5
2372F
330
18
100
AcDbEntity
  8
0
100
AcDbLine
 10
-35.55985360295267
 20
247.4309609297097
 30
0.0
 11
-37.55985360295267
 21
247.4309609297097
 31
0.0
  0
LINE
  5
23730
330
18
100
AcDbEntity
  8
0
100
AcDbLine
 10
-35.55985360295267
 20
244.5030968847085
 30
0.0
 11
-32.55985360295312
 21
244.5030968847085
 31
0.0
  0
LINE
  5
23731
330
18
100
AcDbEntity
  8
0
100
AcDbLine
 10
-35.55985360295267
 20
246.0221342881609
 30
0.0
 11
-32.55985360295312
 21
246.0221342881609
 31
0.0
  0
LINE
  5
2373A
330
18
100
AcDbEntity
  8
0
100
AcDbLine
 10
126.440146397047
 20
203.5309609297089
 30
0.0
 11
75.45745616221828
 21
203.5309609297089
 31
0.0
  0
LINE
  5
23779
330
18
100
AcDbEntity
  8
0
100
AcDbLine
 10
141.440146397047
 20
218.5309609297088
 30
0.0
 11
141.440146397047
 21
269.5136511645368
 31
0.0
  0
LINE
  5
2377C
330
18
100
AcDbEntity
  8
中心線
100
AcDbLine
 10
-40.05985360295267
 20
290.0309609297091
 30
0.0
 11
149.9401463970473
 21
290.0309609297091
 31
0.0
  0
LINE
  5
2377D
330
18
100
AcDbEntity
  8
0
100
AcDbLine
 10
-16.55985360295264
 20
376.5309609297093
 30
0.0
 11
34.42283663187513
 21
376.530960929709
 31
0.0
  0
ARC
  5
2378C
330
18
100
AcDbEntity
  8
細線
100
AcDbCircle
 10
-63.31197474259011
 20
327.0809609297086
 30
0.0
 40
1.579751577084588
100
AcDbArc
 50
318.3436407292488
 51
41.6563592707512
  0
LINE
  5
2378D
330
18
100
AcDbEntity
  8
0
100
AcDbLine
 10
-51.05985360295267
 20
323.9309609297097
 30
0.0
 11
-62.13167179618132
 21
323.9309609297097
 31
0.0
  0
LINE
  5
2378E
330
18
100
AcDbEntity
  8
0
100
AcDbLine
 10
-51.05985360295267
 20
328.1309609297097
 30
0.0
 11
-62.13167179618132
 21
328.1309609297096
 31
0.0
  0
LINE
  5
23792
330
18
100
AcDbEntity
  8
0
100
AcDbLine
 10
-155.8057896714033
 20
335.7218648675911
 30
0.0
 11
-178.2057896714033
 21
331.9373899817463
 31
0.0
  0
LINE
  5
23794
330
18
100
AcDbEntity
  8
0
100
AcDbLine
 10
-155.8057896714033
 20
339.9530749132528
 30
0.0
 11
-140.8057896714033
 21
339.9530749132528
 31
0.0
  0
LINE
  5
23795
330
18
100
AcDbEntity
  8
0
100
AcDbLine
 10
-155.8057896714033
 20
334.0730749132528
 30
0.0
 11
-140.8057896714033
 21
334.0730749132528
 31
0.0
  0
LINE
  5
23796
330
18
100
AcDbEntity
  8
0
100
AcDbLine
 10
-178.2057896714033
 20
337.0130749132531
 30
0.0
 11
-155.8057896714033
 21
337.0130749132531
 31
0.0
  0
LINE
  5
23797
330
18
100
AcDbEntity
  8
0
100
AcDbLine
 10
-155.8057896714033
 20
338.3042849589151
 30
0.0
 11
-178.2057896714033
 21
342.08875984476
 31
0.0
  0
LINE
  5
2379B
330
18
100
AcDbEntity
  8
0
100
AcDbLine
 10
-155.8057896714033
 20
334.0730749132528
 30
0.0
 11
-155.8057896714033
 21
339.9530749132528
 31
0.0
  0
LINE
  5
2379C
330
18
100
AcDbEntity
  8
0
100
AcDbLine
 10
-113.6593739480648
 20
328.1309609297101
 30
0.0
 11
-64.97020154070469
 21
328.1309609297096
 31
0.0
  0
LINE
  5
2379D
330
18
100
AcDbEntity
  8
0
100
AcDbLine
 10
-113.6620024401292
 20
323.9309609297096
 30
0.0
 11
-64.97020154070469
 21
323.9309609297097
 31
0.0
  0
ARC
  5
2379F
330
18
100
AcDbEntity
  8
細線
100
AcDbCircle
 10
-66.15050448711349
 20
324.9809609297096
 30
0.0
 40
1.579751577084588
100
AcDbArc
 50
318.3436407292488
 51
41.6563592707512
  0
ARC
  5
237A0
330
18
100
AcDbEntity
  8
細線
100
AcDbCircle
 10
-63.78989859429589
 20
324.9809609297096
 30
0.0
 40
1.579751577084588
100
AcDbArc
 50
138.3436407292487
 51
221.656359270751
  0
ARC
  5
237A1
330
18
100
AcDbEntity
  8
細線
100
AcDbCircle
 10
-60.9513688497725
 20
324.9809609297086
 30
0.0
 40
1.579751577084588
100
AcDbArc
 50
138.3436407292487
 51
221.656359270751
  0
ARC
  5
237A2
330
18
100
AcDbEntity
  8
細線
100
AcDbCircle
 10
-66.15050448711349
 20
327.0809609297096
 30
0.0
 40
1.579751577084588
100
AcDbArc
 50
318.3436407292488
 51
41.6563592707512
  0
ARC
  5
237A3
330
18
100
AcDbEntity
  8
細線
100
AcDbCircle
 10
-60.9513688497725
 20
327.0809609297086
 30
0.0
 40
1.579751577084588
100
AcDbArc
 50
138.3436407292487
 51
221.656359270751
  0
LINE
  5
237A4
330
18
100
AcDbEntity
  8
0
100
AcDbLine
 10
-31.55985360295267
 20
361.5309609297093
 30
0.0
 11
-31.55985360295267
 21
310.5482706948806
 31
0.0
  0
LINE
  5
237A5
330
18
100
AcDbEntity
  8
0
100
AcDbLine
 10
-46.55985360295267
 20
320.0397875712568
 30
0.0
 11
-46.55985360295267
 21
321.5588249747093
 31
0.0
  0
LINE
  5
237A6
330
18
100
AcDbEntity
  8
0
100
AcDbLine
 10
-37.55985360295267
 20
335.5309609297091
 30
0.0
 11
-37.55985360295267
 21
316.5309609297092
 31
0.0
  0
LINE
  5
237A7
330
18
100
AcDbEntity
  8
0
100
AcDbLine
 10
-47.55985360295244
 20
316.702389501138
 30
0.0
 11
-47.55985360295267
 21
335.3595323582806
 31
0.0
  0
LINE
  5
237A8
330
18
100
AcDbEntity
  8
0
100
AcDbLine
 10
-40.55985360295267
 20
315.5309609297091
 30
0.0
 11
-40.55985360295267
 21
336.5309609297091
 31
0.0
  0
LINE
  5
237A9
330
18
100
AcDbEntity
  8
0
100
AcDbLine
 10
-51.05985360295267
 20
320.8023895011368
 30
0.0
 11
-51.05985360295267
 21
331.2595323582813
 31
0.0
  0
LINE
  5
237AA
330
18
100
AcDbEntity
  8
0
100
AcDbLine
 10
-32.55985360295312
 20
336.5309609297091
 30
0.0
 11
-32.55985360295312
 21
315.5309609297091
 31
0.0
  0
LINE
  5
237AB
330
18
100
AcDbEntity
  8
0
100
AcDbLine
 10
-35.55985360295267
 20
315.5309609297091
 30
0.0
 11
-35.55985360295267
 21
336.5309609297091
 31
0.0
  0
LINE
  5
237B1
330
18
100
AcDbEntity
  8
0
100
AcDbLine
 10
-40.55985360295267
 20
315.5309609297091
 30
0.0
 11
-46.55985360295267
 21
315.5309609297091
 31
0.0
  0
LINE
  5
237B2
330
18
100
AcDbEntity
  8
0
100
AcDbLine
 10
-40.55985360295267
 20
320.0397875712568
 30
0.0
 11
-46.55985360295267
 21
320.0397875712568
 31
0.0
  0
ARC
  5
237B3
330
18
100
AcDbEntity
  8
0
100
AcDbCircle
 10
-38.58605708538289
 20
315.8320457431193
 30
0.0
 40
9.015903847971632
100
AcDbArc
 50
152.1795611441612
 51
174.4603666814936
  0
LINE
  5
237B4
330
18
100
AcDbEntity
  8
0
100
AcDbLine
 10
-46.55985360295221
 20
315.5309609297091
 30
0.0
 11
-51.05985360295267
 21
320.8023895011368
 31
0.0
  0
LINE
  5
237B5
330
18
100
AcDbEntity
  8
0
100
AcDbLine
 10
-31.55985360295267
 20
317.0309609297091
 30
0.0
 11
-32.55985360295312
 21
317.0309609297091
 31
0.0
  0
LINE
  5
237B6
330
18
100
AcDbEntity
  8
0
100
AcDbLine
 10
-35.55985360295267
 20
318.6309609297086
 30
0.0
 11
-37.55985360295267
 21
318.6309609297086
 31
0.0
  0
LINE
  5
237B7
330
18
100
AcDbEntity
  8
0
100
AcDbLine
 10
-37.55985360295267
 20
316.5309609297092
 30
0.0
 11
-40.55985360295267
 21
316.5309609297092
 31
0.0
  0
LINE
  5
237B8
330
18
100
AcDbEntity
  8
0
100
AcDbLine
 10
-32.55985360295312
 20
315.5309609297091
 30
0.0
 11
-35.55985360295267
 21
315.5309609297091
 31
0.0
  0
LINE
  5
237B9
330
18
100
AcDbEntity
  8
0
100
AcDbLine
 10
-32.55985360295312
 20
320.0397875712568
 30
0.0
 11
-35.55985360295267
 21
320.0397875712568
 31
0.0
  0
LINE
  5
237C5
330
18
100
AcDbEntity
  8
中心線
100
AcDbLine
 10
15.94014639704733
 20
290.0309609297091
 30
0.0
 11
5.940146397047326
 21
290.0309609297091
 31
0.0
  0
LINE
  5
237D8
330
18
100
AcDbEntity
  8
0
100
AcDbLine
 10
-46.55985360295267
 20
330.5030968847088
 30
0.0
 11
-40.55985360295267
 21
330.5030968847088
 31
0.0
  0
LINE
  5
237D9
330
18
100
AcDbEntity
  8
0
100
AcDbLine
 10
-46.55985360295267
 20
332.0221342881611
 30
0.0
 11
-40.55985360295267
 21
332.0221342881611
 31
0.0
  0
LINE
  5
237DA
330
18
100
AcDbEntity
  8
0
100
AcDbLine
 10
-40.55985360295267
 20
336.5309609297091
 30
0.0
 11
-46.55985360295244
 21
336.5309609297091
 31
0.0
  0
LINE
  5
237DB
330
18
100
AcDbEntity
  8
0
100
AcDbLine
 10
-40.55985360295267
 20
321.5588249747095
 30
0.0
 11
-46.55985360295267
 21
321.5588249747095
 31
0.0
  0
LINE
  5
237DC
330
18
100
AcDbEntity
  8
0
100
AcDbLine
 10
-46.55985360295244
 20
336.5309609297091
 30
0.0
 11
-51.05985360295267
 21
331.2595323582813
 31
0.0
  0
ARC
  5
237DD
330
18
100
AcDbEntity
  8
0
100
AcDbCircle
 10
-38.58605708538289
 20
336.2298761162988
 30
0.0
 40
9.015903847971632
100
AcDbArc
 50
185.5396333185062
 51
207.8204388558385
  0
LINE
  5
237DE
330
18
100
AcDbEntity
  8
0
100
AcDbLine
 10
-46.55985360295267
 20
330.5030968847086
 30
0.0
 11
-46.55985360295267
 21
332.0221342881611
 31
0.0
  0
ARC
  5
237DF
330
18
100
AcDbEntity
  8
0
100
AcDbCircle
 10
-37.05985360295221
 20
326.0309609297091
 30
0.0
 40
10.50000000000042
100
AcDbArc
 50
154.7912347032419
 51
205.2087652967581
  0
LINE
  5
237E0
330
18
100
AcDbEntity
  8
0
100
AcDbLine
 10
-31.55985360295267
 20
335.0309609297092
 30
0.0
 11
-32.55985360295335
 21
335.0309609297092
 31
0.0
  0
LINE
  5
237E1
330
18
100
AcDbEntity
  8
0
100
AcDbLine
 10
-35.55985360295267
 20
333.4309609297088
 30
0.0
 11
-37.55985360295267
 21
333.4309609297088
 31
0.0
  0
LINE
  5
237E2
330
18
100
AcDbEntity
  8
0
100
AcDbLine
 10
-37.55985360295267
 20
335.5309609297091
 30
0.0
 11
-40.55985360295267
 21
335.5309609297091
 31
0.0
  0
LINE
  5
237E3
330
18
100
AcDbEntity
  8
0
100
AcDbLine
 10
-35.55985360295267
 20
330.5030968847086
 30
0.0
 11
-32.55985360295312
 21
330.5030968847086
 31
0.0
  0
LINE
  5
237E4
330
18
100
AcDbEntity
  8
0
100
AcDbLine
 10
-35.55985360295267
 20
332.0221342881611
 30
0.0
 11
-32.55985360295312
 21
332.0221342881611
 31
0.0
  0
LINE
  5
237E5
330
18
100
AcDbEntity
  8
0
100
AcDbLine
 10
-32.55985360295312
 20
321.5588249747095
 30
0.0
 11
-35.55985360295267
 21
321.5588249747095
 31
0.0
  0
LINE
  5
237E6
330
18
100
AcDbEntity
  8
0
100
AcDbLine
 10
-32.55985360295312
 20
336.5309609297091
 30
0.0
 11
-35.55985360295267
 21
336.5309609297091
 31
0.0
  0
LINE
  5
237F6
330
18
100
AcDbEntity
  8
0
100
AcDbLine
 10
126.4401463970471
 20
376.530960929709
 30
0.0
 11
75.4574561622193
 21
376.530960929709
 31
0.0
  0
LINE
  5
23847
330
18
100
AcDbEntity
  8
0
100
AcDbLine
 10
141.440146397047
 20
361.530960929709
 30
0.0
 11
141.440146397047
 21
310.5482706948817
 31
0.0
  0
LINE
  5
24544
330
18
100
AcDbEntity
  8
中心線
100
AcDbLine
 10
54.94015110352541
 20
118.0771173689505
 30
0.0
 11
54.94014639704733
 21
-26.43372197393455
 31
0.0
  0
LINE
  5
24547
330
18
100
AcDbEntity
  8
0
100
AcDbLine
 10
143.8401463970473
 20
77.76627802606516
 30
0.0
 11
143.8401463970473
 21
-0.1337219739351198
 31
0.0
  0
LINE
  5
24564
330
18
100
AcDbEntity
  8
0
100
AcDbLine
 10
-33.95985360295348
 20
77.76627802606483
 30
0.0
 11
-33.95985360295268
 21
-0.133721973934545
 31
0.0
  0
LINE
  5
24572
330
18
100
AcDbEntity
  8
0
100
AcDbLine
 10
54.94014639704754
 20
-21.43372197393455
 30
0.0
 11
-31.55985360295289
 21
-21.43372197393455
 31
0.0
  0
LINE
  5
24582
330
18
100
AcDbEntity
  8
中心線
100
AcDbLine
 10
-24.22453755246261
 20
-11.43372197393442
 30
0.0
 11
-55.50588949098528
 21
-11.43372197393442
 31
0.0
  0
LINE
  5
2458C
330
18
100
AcDbEntity
  8
0
100
AcDbLine
 10
-51.0598536029529
 20
-8.933721977234991
 30
0.0
 11
-77.19632925531016
 21
-8.933721977234991
 31
0.0
  0
LINE
  5
2458D
330
18
100
AcDbEntity
  8
0
100
AcDbLine
 10
-51.0598536029529
 20
-13.93372197063478
 30
0.0
 11
-77.19632925531105
 21
-13.93372197063478
 31
0.0
  0
ARC
  5
2458E
330
18
100
AcDbEntity
  8
0
100
AcDbCircle
 10
-80.49407140818074
 20
-12.68372197228438
 30
0.0
 40
1.880656636903949
100
AcDbArc
 50
318.3436407292488
 51
41.6563592707512
  0
ARC
  5
2458F
330
18
100
AcDbEntity
  8
0
100
AcDbCircle
 10
-75.79120670191706
 20
-12.68372197228461
 30
0.0
 40
1.880656636903949
100
AcDbArc
 50
138.3436407292579
 51
221.6563592707419
  0
ARC
  5
24590
330
18
100
AcDbEntity
  8
0
100
AcDbCircle
 10
-80.49407140818074
 20
-10.18372197558448
 30
0.0
 40
1.880656636903949
100
AcDbArc
 50
318.3436407292488
 51
41.6563592707512
  0
ARC
  5
24591
330
18
100
AcDbEntity
  8
0
100
AcDbCircle
 10
-75.79120670191662
 20
-10.1837219755847
 30
0.0
 40
1.880656636903949
100
AcDbArc
 50
138.3436407292579
 51
221.6563592707419
  0
ARC
  5
24592
330
18
100
AcDbEntity
  8
0
100
AcDbCircle
 10
-78.60145180870415
 20
-10.1837219755847
 30
0.0
 40
1.880656636903949
100
AcDbArc
 50
318.343640729258
 51
41.656359270742
  0
LINE
  5
245CF
330
18
100
AcDbEntity
  8
0
100
AcDbLine
 10
54.9401463970471
 20
-21.43372197393455
 30
0.0
 11
141.4401463970475
 21
-21.43372197393455
 31
0.0
  0
LINE
  5
245EB
330
18
100
AcDbEntity
  8
破線
100
AcDbLine
 10
37.44015110352597
 20
83.06627802606547
 30
0.0
 11
37.44015110352485
 21
-19.93372072136346
 31
0.0
  0
LINE
  5
2463D
330
18
100
AcDbEntity
  8
破線
100
AcDbLine
 10
72.44015110352575
 20
83.06627802606547
 30
0.0
 11
72.44015110352574
 21
-19.93372322650628
 31
0.0
  0
LINE
  5
246CC
330
18
100
AcDbEntity
  8
0
100
AcDbLine
 10
143.1901463970468
 20
-0.1337219739351177
 30
0.0
 11
143.1901463970465
 21
-6.433721973934556
 31
0.0
  0
LINE
  5
246CF
330
18
100
AcDbEntity
  8
0
100
AcDbLine
 10
141.440146397047
 20
-8.433721973935007
 30
0.0
 11
141.4401463970475
 21
-21.43372197393455
 31
0.0
  0
LINE
  5
2470D
330
18
100
AcDbEntity
  8
0
100
AcDbLine
 10
-33.95985360295266
 20
78.7662780260667
 30
0.0
 11
54.94014639704733
 21
78.76627802606545
 31
0.0
  0
LINE
  5
2471D
330
18
100
AcDbEntity
  8
0
100
AcDbLine
 10
-33.45985360295267
 20
78.26627802606562
 30
0.0
 11
-33.95985360295266
 21
77.76627802606562
 31
0.0
  0
LINE
  5
24723
330
18
100
AcDbEntity
  8
0
100
AcDbLine
 10
-33.95985360295266
 20
78.26627802606562
 30
0.0
 11
54.94014639704733
 21
78.26627802606562
 31
0.0
  0
LINE
  5
24724
330
18
100
AcDbEntity
  8
0
100
AcDbLine
 10
-33.95985360295266
 20
78.76627802606669
 30
0.0
 11
-33.95985360295266
 21
78.26627802606562
 31
0.0
  0
LINE
  5
24731
330
18
100
AcDbEntity
  8
0
100
AcDbLine
 10
102.4459063778197
 20
83.0662780260655
 30
0.0
 11
54.9401463970471
 21
83.06627802606547
 31
0.0
  0
LINE
  5
24735
330
18
100
AcDbEntity
  8
0
100
AcDbLine
 10
7.444395829230868
 20
83.0662780260655
 30
0.0
 11
54.94014639704754
 21
83.06627802606547
 31
0.0
  0
LINE
  5
24740
330
18
100
AcDbEntity
  8
0
100
AcDbLine
 10
6.944395829230868
 20
82.5662780260655
 30
0.0
 11
6.944395829230868
 21
80.06627802606542
 31
0.0
  0
LINE
  5
2474C
330
18
100
AcDbEntity
  8
0
100
AcDbLine
 10
0.9401463970473288
 20
80.06627802606601
 30
0.0
 11
0.9401463970473288
 21
78.76627802606622
 31
0.0
  0
LINE
  5
24750
330
18
100
AcDbEntity
  8
0
100
AcDbLine
 10
0.9401463970473288
 20
80.06627802606647
 30
0.0
 11
54.94014639704733
 21
80.06627802606113
 31
0.0
  0
LINE
  5
24764
330
18
100
AcDbEntity
  8
0
100
AcDbLine
 10
54.94014639704733
 20
78.76627802606545
 30
0.0
 11
143.8401463970473
 21
78.76627802606545
 31
0.0
  0
LINE
  5
2476F
330
18
100
AcDbEntity
  8
0
100
AcDbLine
 10
108.9401463970473
 20
80.06627802606542
 30
0.0
 11
54.94014639704733
 21
80.06627802606539
 31
0.0
  0
LINE
  5
24770
330
18
100
AcDbEntity
  8
0
100
AcDbLine
 10
102.9459063778197
 20
82.5662780260655
 30
0.0
 11
102.9459063778197
 21
80.06627802606542
 31
0.0
  0
LINE
  5
24787
330
18
100
AcDbEntity
  8
0
100
AcDbLine
 10
108.9401463970473
 20
80.06627802606542
 30
0.0
 11
108.9401463970473
 21
78.76627802606545
 31
0.0
  0
LINE
  5
2478D
330
18
100
AcDbEntity
  8
0
100
AcDbLine
 10
143.3401463970468
 20
78.26627802606562
 30
0.0
 11
143.8401463970468
 21
77.76627802606562
 31
0.0
  0
LINE
  5
2478E
330
18
100
AcDbEntity
  8
0
100
AcDbLine
 10
143.8401463970473
 20
78.76627802606545
 30
0.0
 11
143.8401463970475
 21
78.26627802606562
 31
0.0
  0
LINE
  5
247A1
330
18
100
AcDbEntity
  8
0
100
AcDbLine
 10
54.94014639704733
 20
78.26627802606562
 30
0.0
 11
143.8401463970475
 21
78.26627802606562
 31
0.0
  0
LINE
  5
247F9
330
18
100
AcDbEntity
  8
0
100
AcDbLine
 10
-79.08894885478694
 20
-8.933721977234425
 30
0.0
 11
-156.3100869424063
 21
-8.933721977234428
 31
0.0
  0
LINE
  5
247FA
330
18
100
AcDbEntity
  8
0
100
AcDbLine
 10
-79.08894885478694
 20
-13.93372197063444
 30
0.0
 11
-156.3083448480109
 21
-13.93372197063444
 31
0.0
  0
LINE
  5
2480D
330
18
100
AcDbEntity
  8
0
100
AcDbLine
 10
-156.3100869424063
 20
-8.933721977232471
 30
0.0
 11
-156.3083448480109
 21
-13.93372197063249
 31
0.0
  0
LINE
  5
24A17
330
18
100
AcDbEntity
  8
0
100
AcDbLine
 10
-31.55985360295289
 20
-21.43372197393455
 30
0.0
 11
-31.55985360295289
 21
-1.43372197393455
 31
0.0
  0
LINE
  5
24A18
330
18
100
AcDbEntity
  8
中心線
100
AcDbLine
 10
-17.53829867457397
 20
0.0662780260654472
 30
0.0
 11
-17.53829867457397
 21
-22.93372197393455
 31
0.0
  0
LINE
  5
24A2A
330
18
100
AcDbEntity
  8
0
100
AcDbLine
 10
141.440146397047
 20
-21.43372197393455
 30
0.0
 11
141.440146397047
 21
-1.43372197393455
 31
0.0
  0
LINE
  5
24A2B
330
18
100
AcDbEntity
  8
中心線
100
AcDbLine
 10
127.418591468668
 20
0.0662780260654472
 30
0.0
 11
127.418591468668
 21
-22.93372197393455
 31
0.0
  0
LINE
  5
24A35
330
18
100
AcDbEntity
  8
0
100
AcDbLine
 10
38.76145670968139
 20
-1.43372197393478
 30
0.0
 11
-31.55985360295289
 21
-1.43372197393455
 31
0.0
  0
LINE
  5
24A38
330
18
100
AcDbEntity
  8
0
100
AcDbLine
 10
141.440146397047
 20
-1.43372197393455
 30
0.0
 11
71.11883608440826
 21
-1.433721973934324
 31
0.0
  0
LINE
  5
24A39
330
18
100
AcDbEntity
  8
0
100
AcDbLine
 10
71.11883608440826
 20
-1.433721973934324
 30
0.0
 11
71.11883608440826
 21
-6.433721973934781
 31
0.0
  0
LINE
  5
24A3B
330
18
100
AcDbEntity
  8
0
100
AcDbLine
 10
38.76145670968139
 20
-6.433721973934781
 30
0.0
 11
38.76145670968139
 21
-1.43372197393478
 31
0.0
  0
LINE
  5
24B96
330
18
100
AcDbEntity
  8
0
100
AcDbLine
 10
7.444395829230868
 20
83.0662780260655
 30
0.0
 11
6.944395829230868
 21
82.5662780260655
 31
0.0
  0
LINE
  5
24B97
330
18
100
AcDbEntity
  8
0
100
AcDbLine
 10
102.4459063778197
 20
83.0662780260655
 30
0.0
 11
102.9459063778197
 21
82.5662780260655
 31
0.0
  0
ARC
  5
24F19
330
18
100
AcDbEntity
  8
0
100
AcDbCircle
 10
54.94014639704733
 20
290.0309609297091
 30
0.0
 40
48.0
100
AcDbArc
 50
342.0768331081816
 51
17.92316689182553
  0
CIRCLE
  5
24F1B
330
18
100
AcDbEntity
  8
0
100
AcDbCircle
 10
54.94014639704733
 20
290.0309609297091
 30
0.0
 40
17.5
  0
ARC
  5
24F1C
330
18
100
AcDbEntity
  8
0
100
AcDbCircle
 10
54.94014639704733
 20
290.0309609297091
 30
0.0
 40
48.0
100
AcDbArc
 50
162.0768331081816
 51
197.9231668918254
  0
CIRCLE
  5
24F1F
330
18
100
AcDbEntity
  8
0
100
AcDbCircle
 10
9.670049303994574
 20
271.2794727438187
 30
0.0
 40
4.0
  0
CIRCLE
  5
24F20
330
18
100
AcDbEntity
  8
細線
100
AcDbCircle
 10
9.670049303994574
 20
271.2794727438187
 30
0.0
 40
3.5
  0
LWPOLYLINE
  5
24F22
330
18
100
AcDbEntity
  8
細線
100
AcDbPolyline
 90
        6
 70
     1
 43
0.0
 10
9.896127300429043
 20
272.9967056150234
 10
11.27025559288868
 20
271.942299891273
 10
11.04417759645569
 20
270.2250670200688
 10
9.443971307562035
 20
269.5622398726139
 10
8.069843015101922
 20
270.6166455963641
 10
8.295921011535027
 20
272.3338784675685
  0
CIRCLE
  5
24F23
330
18
100
AcDbEntity
  8
0
100
AcDbCircle
 10
100.2102434901005
 20
271.2794727438208
 30
0.0
 40
4.0
  0
CIRCLE
  5
24F24
330
18
100
AcDbEntity
  8
細線
100
AcDbCircle
 10
100.2102434901005
 20
271.2794727438208
 30
0.0
 40
3.5
  0
ARC
  5
24F26
330
18
100
AcDbEntity
  8
0
100
AcDbCircle
 10
54.94014639704733
 20
290.0309609297091
 30
0.0
 40
48.0
100
AcDbArc
 50
297.0768331081803
 51
332.9231668918195
  0
LINE
  5
24F2D
330
18
100
AcDbEntity
  8
中心線
100
AcDbLine
 10
35.94194875028664
 20
257.1251173532832
 30
0.0
 11
30.94194875028665
 21
248.4648633154387
 31
0.0
  0
CIRCLE
  5
24F2E
330
18
100
AcDbEntity
  8
0
100
AcDbCircle
 10
33.44194875028552
 20
252.7949903343615
 30
0.0
 40
2.399999999999999
  0
CIRCLE
  5
24F2F
330
18
100
AcDbEntity
  8
細線
100
AcDbCircle
 10
33.44194875028552
 20
252.7949903343615
 30
0.0
 40
3.0
  0
ARC
  5
24F30
330
18
100
AcDbEntity
  8
0
100
AcDbCircle
 10
54.94014639704733
 20
290.0309609297091
 30
0.0
 40
48.0
100
AcDbArc
 50
207.0768331081803
 51
242.9231668918196
  0
CIRCLE
  5
24F31
330
18
100
AcDbEntity
  8
0
100
AcDbCircle
 10
36.18865821115901
 20
244.7608638366555
 30
0.0
 40
4.0
  0
CIRCLE
  5
24F32
330
18
100
AcDbEntity
  8
細線
100
AcDbCircle
 10
36.18865821115901
 20
244.7608638366555
 30
0.0
 40
3.5
  0
LWPOLYLINE
  5
24F34
330
18
100
AcDbEntity
  8
細線
100
AcDbPolyline
 90
        6
 70
     1
 43
0.0
 10
35.13425248740952
 20
246.1349921291168
 10
36.8514853586139
 20
246.3610701255495
 10
37.90589108236395
 20
244.9869418330895
 10
37.24306393490974
 20
243.3867355441956
 10
35.52583106370525
 20
243.1606575477626
 10
34.47142533995509
 20
244.5347858402225
  0
LWPOLYLINE
  5
24F38
330
18
100
AcDbEntity
  8
0
100
AcDbPolyline
 90
        4
 70
   128
 43
0.0
 10
48.91775278361615
 20
273.5998692080704
 10
47.2882162148903
 20
270.7774290782448
 42
-0.9999999999999962
 10
42.09206379218367
 20
273.7774290782439
 10
43.72160036090986
 20
276.5998692080709
  0
CIRCLE
  5
24F3A
330
18
100
AcDbEntity
  8
細線
100
AcDbCircle
 10
44.69014000353694
 20
272.2774290782448
 30
0.0
 40
2.74999999744107
  0
LWPOLYLINE
  5
24F3B
330
18
100
AcDbEntity
  8
細線
100
AcDbPolyline
 90
        6
 70
     1
 43
0.0
 10
43.96844943632527
 20
273.5274275001056
 10
45.41182510795295
 20
273.5274306540515
 10
46.13351567516417
 20
272.2774322321916
 10
45.41183057074806
 20
271.0274306563837
 10
43.96845489912027
 20
271.0274275024378
 10
43.24676433190902
 20
272.2774259242984
  0
CIRCLE
  5
24F40
330
18
100
AcDbEntity
  8
0
100
AcDbCircle
 10
73.69163458293781
 20
244.7608638366566
 30
0.0
 40
4.0
  0
CIRCLE
  5
24F41
330
18
100
AcDbEntity
  8
細線
100
AcDbCircle
 10
73.69163458293781
 20
244.7608638366566
 30
0.0
 40
3.5
  0
LINE
  5
24F42
330
18
100
AcDbEntity
  8
中心線
100
AcDbLine
 10
54.94014639704722
 20
249.5870615052765
 30
0.0
 11
54.9401463970471
 21
244.147398747518
 31
0.0
  0
LWPOLYLINE
  5
24F43
330
18
100
AcDbEntity
  8
細線
100
AcDbPolyline
 90
        6
 70
     1
 43
0.0
 10
71.97440171173299
 20
244.9869418330909
 10
73.02880743548349
 20
246.3610701255503
 10
74.74604030668762
 20
246.1349921291175
 10
75.40886745414251
 20
244.5347858402239
 10
74.35446173039236
 20
243.1606575477636
 10
72.63722885918788
 20
243.3867355441968
  0
CIRCLE
  5
24F44
330
18
100
AcDbEntity
  8
細線
100
AcDbCircle
 10
65.19015279055645
 20
272.277429078244
 30
0.0
 40
2.74999999744107
  0
LWPOLYLINE
  5
24F46
330
18
100
AcDbEntity
  8
細線
100
AcDbPolyline
 90
        6
 70
     1
 43
0.0
 10
63.746777118929
 20
272.2774259242974
 10
64.46846222334556
 20
273.5274275001045
 10
65.91183789497232
 20
273.5274306540511
 10
66.63352846218436
 20
272.2774322321903
 10
65.91184335776779
 20
271.0274306563833
 10
64.46846768614057
 20
271.0274275024366
  0
LWPOLYLINE
  5
24F47
330
18
100
AcDbEntity
  8
0
100
AcDbPolyline
 90
        4
 70
   128
 43
0.0
 10
66.15869243318321
 20
276.5998692080694
 10
67.78822900191006
 20
273.7774290782441
 42
-0.9999999999999962
 10
62.59207657920455
 20
270.7774290782436
 10
60.96254001047647
 20
273.5998692080698
  0
LWPOLYLINE
  5
24F4B
330
18
100
AcDbEntity
  8
細線
100
AcDbPolyline
 90
        6
 70
     1
 43
0.0
 10
98.83611519763952
 20
270.2250670200713
 10
98.61003720120701
 20
271.9422998912757
 10
99.98416549366652
 20
272.9967056150258
 10
101.5843717825605
 20
272.3338784675714
 10
101.8104497789934
 20
270.6166455963671
 10
100.4363214865335
 20
269.5622398726169
  0
CIRCLE
  5
24F4C
330
18
100
AcDbEntity
  8
0
100
AcDbCircle
 10
9.670049303993776
 20
308.7824491155976
 30
0.0
 40
4.0
  0
CIRCLE
  5
24F4D
330
18
100
AcDbEntity
  8
細線
100
AcDbCircle
 10
9.670049303993776
 20
308.7824491155976
 30
0.0
 40
3.5
  0
LWPOLYLINE
  5
24F4F
330
18
100
AcDbEntity
  8
細線
100
AcDbPolyline
 90
        6
 70
     1
 43
0.0
 10
11.044177596455
 20
309.8368548393468
 10
11.27025559288756
 20
308.1196219681427
 10
9.896127300427906
 20
307.0652162443926
 10
8.295921011533891
 20
307.7280433918468
 10
8.069843015100786
 20
309.4452762630513
 10
9.443971307560786
 20
310.4996819868013
  0
CIRCLE
  5
24F50
330
18
100
AcDbEntity
  8
0
100
AcDbCircle
 10
11.94375110352507
 20
290.0309609297098
 30
0.0
 40
2.399999999999999
  0
CIRCLE
  5
24F51
330
18
100
AcDbEntity
  8
細線
100
AcDbCircle
 10
11.94375110352507
 20
290.0309609297098
 30
0.0
 40
3.0
  0
CIRCLE
  5
24F52
330
18
100
AcDbEntity
  8
0
100
AcDbCircle
 10
100.2102434900997
 20
308.7824491155994
 30
0.0
 40
4.0
  0
CIRCLE
  5
24F53
330
18
100
AcDbEntity
  8
細線
100
AcDbCircle
 10
100.2102434900997
 20
308.7824491155994
 30
0.0
 40
3.5
  0
CIRCLE
  5
24F55
330
18
100
AcDbEntity
  8
0
100
AcDbCircle
 10
97.93654169056956
 20
290.0309609297081
 30
0.0
 40
2.399999999999999
  0
CIRCLE
  5
24F56
330
18
100
AcDbEntity
  8
細線
100
AcDbCircle
 10
97.93654169056956
 20
290.0309609297081
 30
0.0
 40
3.0
  0
ARC
  5
24F57
330
18
100
AcDbEntity
  8
0
100
AcDbCircle
 10
54.94014639704733
 20
290.0309609297091
 30
0.0
 40
48.0
100
AcDbArc
 50
27.07683310818042
 51
62.92316689181957
  0
ARC
  5
24F5A
330
18
100
AcDbEntity
  8
0
100
AcDbCircle
 10
54.94014639704733
 20
290.0309609297091
 30
0.0
 40
48.0
100
AcDbArc
 50
117.0768331081804
 51
152.923166891821
  0
CIRCLE
  5
24F5C
330
18
100
AcDbEntity
  8
0
100
AcDbCircle
 10
76.43834404380914
 20
327.2669315250567
 30
0.0
 40
2.399999999999999
  0
CIRCLE
  5
24F5D
330
18
100
AcDbEntity
  8
細線
100
AcDbCircle
 10
76.43834404380914
 20
327.2669315250567
 30
0.0
 40
3.0
  0
LINE
  5
24F5E
330
18
100
AcDbEntity
  8
中心線
100
AcDbLine
 10
73.93834404380914
 20
322.9368045061347
 30
0.0
 11
78.93834404380914
 21
331.5970585439791
 31
0.0
  0
CIRCLE
  5
24F65
330
18
100
AcDbEntity
  8
細線
100
AcDbCircle
 10
34.4401336100277
 20
290.0309609297083
 30
0.0
 40
2.74999999744107
  0
LWPOLYLINE
  5
24F66
330
18
100
AcDbEntity
  8
0
100
AcDbPolyline
 90
        4
 70
   128
 43
0.0
 10
37.6992067474805
 20
293.0309609297078
 10
34.44013361002794
 20
293.0309609297086
 42
0.9999999999999962
 10
34.44013361002703
 20
287.0309609297093
 10
37.69920674748084
 20
287.0309609297081
  0
LWPOLYLINE
  5
24F67
330
18
100
AcDbEntity
  8
細線
100
AcDbPolyline
 90
        6
 70
     1
 43
0.0
 10
35.16181871444382
 20
288.7809593539011
 10
35.88350928165493
 20
290.0309577757623
 10
35.16182417723952
 20
291.2809593515687
 10
33.71844850561137
 20
291.2809625055155
 10
32.99675793840015
 20
290.0309640836543
 10
33.71844304281603
 20
288.7809625078475
  0
CIRCLE
  5
24F6C
330
18
100
AcDbEntity
  8
細線
100
AcDbCircle
 10
44.69014000353785
 20
307.7844927811742
 30
0.0
 40
2.74999999744107
  0
LWPOLYLINE
  5
24F6D
330
18
100
AcDbEntity
  8
0
100
AcDbPolyline
 90
        4
 70
   128
 43
0.0
 10
43.72160036091123
 20
303.4620526513488
 10
42.09206379218437
 20
306.284492781174
 42
-0.9999999999999962
 10
47.2882162148901
 20
309.2844927811745
 10
48.91775278361797
 20
306.4620526513483
  0
LWPOLYLINE
  5
24F6E
330
18
100
AcDbEntity
  8
細線
100
AcDbPolyline
 90
        6
 70
     1
 43
0.0
 10
46.13351567516554
 20
307.7844959351206
 10
45.41183057074897
 20
306.5344943593137
 10
43.96845489912197
 20
306.534491205367
 10
43.24676433191006
 20
307.7844896272281
 10
43.96844943632674
 20
309.0344912030352
 10
45.41182510795397
 20
309.0344943569816
  0
CIRCLE
  5
24F6F
330
18
100
AcDbEntity
  8
細線
100
AcDbCircle
 10
75.44015918406692
 20
290.0309609297083
 30
0.0
 40
2.74999999744107
  0
LWPOLYLINE
  5
24F70
330
18
100
AcDbEntity
  8
細線
100
AcDbPolyline
 90
        6
 70
     1
 43
0.0
 10
74.71847407965083
 20
288.7809593539011
 10
73.99678351243972
 20
290.0309577757623
 10
74.71846861685515
 20
291.2809593515687
 10
76.16184428848328
 20
291.2809625055155
 10
76.8835348556945
 20
290.0309640836543
 10
76.16184975127862
 20
288.7809625078475
  0
LWPOLYLINE
  5
24F71
330
18
100
AcDbEntity
  8
0
100
AcDbPolyline
 90
        4
 70
   128
 43
0.0
 10
72.18108604661416
 20
293.0309609297078
 10
75.4401591840667
 20
293.0309609297086
 42
-0.9999999999999962
 10
75.44015918406762
 20
287.0309609297093
 10
72.18108604661381
 20
287.0309609297081
  0
LWPOLYLINE
  5
24F72
330
18
100
AcDbEntity
  8
0
100
AcDbPolyline
 90
        4
 70
   128
 43
0.0
 10
60.96254001047793
 20
306.4620526513479
 10
62.59207657920375
 20
309.2844927811737
 42
-0.9999999999999962
 10
67.78822900191039
 20
306.284492781175
 10
66.15869243318434
 20
303.4620526513478
  0
CIRCLE
  5
24F73
330
18
100
AcDbEntity
  8
細線
100
AcDbCircle
 10
65.19015279055735
 20
307.7844927811738
 30
0.0
 40
2.74999999744107
  0
LWPOLYLINE
  5
24F75
330
18
100
AcDbEntity
  8
細線
100
AcDbPolyline
 90
        6
 70
     1
 43
0.0
 10
65.91184335776893
 20
306.5344943593128
 10
64.46846768614114
 20
306.5344912053672
 10
63.7467771189298
 20
307.7844896272269
 10
64.46846222334591
 20
309.0344912030348
 10
65.91183789497383
 20
309.0344943569807
 10
66.63352846218493
 20
307.7844959351204
  0
CIRCLE
  5
24F79
330
18
100
AcDbEntity
  8
細線
100
AcDbCircle
 10
66.06936533645605
 20
331.5657714601389
 30
0.0
 40
1.6
  0
CIRCLE
  5
24F7A
330
18
100
AcDbEntity
  8
細線
100
AcDbCircle
 10
66.06936533645605
 20
331.5657714601389
 30
0.0
 40
2.0
  0
LINE
  5
24F7B
330
18
100
AcDbEntity
  8
中心線
100
AcDbLine
 10
54.94014639704722
 20
330.4748603541418
 30
0.0
 11
54.9401463970471
 21
335.9145231119001
 31
0.0
  0
LWPOLYLINE
  5
24F7C
330
18
100
AcDbEntity
  8
細線
100
AcDbPolyline
 90
        6
 70
     1
 43
0.0
 10
99.98416549366538
 20
307.0652162443948
 10
98.61003720120585
 20
308.1196219681451
 10
98.83611519763883
 20
309.8368548393493
 10
100.4363214865324
 20
310.4996819868042
 10
101.8104497789925
 20
309.445276263054
 10
101.5843717825594
 20
307.7280433918496
  0
ARC
  5
24F7D
330
18
100
AcDbEntity
  8
0
100
AcDbCircle
 10
54.94014639704733
 20
290.0309609297091
 30
0.0
 40
48.0
100
AcDbArc
 50
72.07683310818115
 51
107.9231668918188
  0
CIRCLE
  5
24F7E
330
18
100
AcDbEntity
  8
0
100
AcDbCircle
 10
36.18865821115696
 20
335.3010580227618
 30
0.0
 40
4.0
  0
CIRCLE
  5
24F7F
330
18
100
AcDbEntity
  8
細線
100
AcDbCircle
 10
36.18865821115696
 20
335.3010580227618
 30
0.0
 40
3.5
  0
LWPOLYLINE
  5
24F81
330
18
100
AcDbEntity
  8
細線
100
AcDbPolyline
 90
        6
 70
     1
 43
0.0
 10
37.90589108236167
 20
335.0749800263272
 10
36.85148535861117
 20
333.7008517338678
 10
35.13425248740714
 20
333.9269297303008
 10
34.47142533995224
 20
335.5271360191943
 10
35.52583106370239
 20
336.9012643116545
 10
37.2430639349069
 20
336.6751863152213
  0
CIRCLE
  5
24F83
330
18
100
AcDbEntity
  8
0
100
AcDbCircle
 10
73.69163458293567
 20
335.3010580227626
 30
0.0
 40
4.0
  0
CIRCLE
  5
24F84
330
18
100
AcDbEntity
  8
細線
100
AcDbCircle
 10
73.69163458293567
 20
335.3010580227626
 30
0.0
 40
3.5
  0
LWPOLYLINE
  5
24F85
330
18
100
AcDbEntity
  8
細線
100
AcDbPolyline
 90
        6
 70
     1
 43
0.0
 10
74.74604030668512
 20
333.9269297303013
 10
73.02880743548077
 20
333.7008517338688
 10
71.97440171173069
 20
335.0749800263286
 10
72.6372288591849
 20
336.6751863152226
 10
74.3544617303894
 20
336.9012643116556
 10
75.40886745413956
 20
335.5271360191956
  0
LINE
  5
2635C
330
18
100
AcDbEntity
  8
0
100
AcDbLine
 10
193.7369104394091
 20
243.5309609297103
 30
0.0
 11
187.7369104394091
 21
243.5309609297103
 31
0.0
  0
LINE
  5
26CA4
330
18
100
AcDbEntity
  8
中心線
 48
0.8
100
AcDbLine
 10
-8.069968012012623
 20
353.0410753387722
 30
0.0
 11
-27.0066293371317
 21
371.9777366638914
 31
0.0
  0
ARC
  5
26CA5
330
18
100
AcDbEntity
  8
中心線
 48
0.8
100
AcDbCircle
 10
54.94014639704733
 20
290.0309609297091
 30
0.0
 40
102.4999999999999
100
AcDbArc
 50
125.0296803053699
 51
144.97031969463
  0
ARC
  5
26CA6
330
18
100
AcDbEntity
  8
中心線
 48
0.8
100
AcDbCircle
 10
54.94014639704736
 20
290.0309609297091
 30
0.0
 40
102.4999999999999
100
AcDbArc
 50
215.0296803053699
 51
234.97031969463
  0
LINE
  5
26CA7
330
18
100
AcDbEntity
  8
中心線
 48
0.8
100
AcDbLine
 10
-8.06996801201592
 20
227.0208465206491
 30
0.0
 11
-27.00662933713488
 21
208.08418519553
 31
0.0
  0
ARC
  5
26CA8
330
18
100
AcDbEntity
  8
中心線
 48
0.8
100
AcDbCircle
 10
54.94014639704733
 20
290.0309609297091
 30
0.0
 40
102.4999999999999
100
AcDbArc
 50
305.0296803053698
 51
324.9703196946298
  0
LINE
  5
26CA9
330
18
100
AcDbEntity
  8
中心線
 48
0.8
100
AcDbLine
 10
117.950260806107
 20
227.0208465206458
 30
0.0
 11
136.8869221312263
 21
208.0841851955269
 31
0.0
  0
ARC
  5
26CAA
330
18
100
AcDbEntity
  8
中心線
 48
0.8
100
AcDbCircle
 10
54.94014639704733
 20
290.0309609297091
 30
0.0
 40
102.4999999999999
100
AcDbArc
 50
35.02968030536989
 51
54.97031969462996
  0
LINE
  5
26CAB
330
18
100
AcDbEntity
  8
中心線
 48
0.8
100
AcDbLine
 10
117.9502608061104
 20
353.041075338769
 30
0.0
 11
136.8869221312294
 21
371.9777366638881
 31
0.0
  0
LINE
  5
27687
330
18
100
AcDbEntity
  8
中心線
100
AcDbLine
 10
384.2369104394092
 20
290.0309609297092
 30
0.0
 11
194.2369104394091
 21
290.0309609297096
 31
0.0
  0
LINE
  5
27689
330
18
100
AcDbEntity
  8
0
100
AcDbLine
 10
198.7369104394091
 20
246.6309609297103
 30
0.0
 11
196.7369104394091
 21
246.6309609297103
 31
0.0
  0
LINE
  5
2768A
330
18
100
AcDbEntity
  8
0
100
AcDbLine
 10
198.7369104394091
 20
261.4309609297105
 30
0.0
 11
196.7369104394091
 21
261.4309609297105
 31
0.0
  0
LINE
  5
2768B
330
18
100
AcDbEntity
  8
0
100
AcDbLine
 10
198.7369104394091
 20
332.6309609297092
 30
0.0
 11
196.7369104394091
 21
332.6309609297092
 31
0.0
  0
LINE
  5
2768C
330
18
100
AcDbEntity
  8
0
100
AcDbLine
 10
198.7369104394091
 20
347.4309609297093
 30
0.0
 11
196.7369104394091
 21
347.4309609297093
 31
0.0
  0
LINE
  5
2768D
330
18
100
AcDbEntity
  8
0
100
AcDbLine
 10
187.7369104394091
 20
258.5030968847095
 30
0.0
 11
187.7369104394091
 21
260.0221342881618
 31
0.0
  0
LINE
  5
2768E
330
18
100
AcDbEntity
  8
0
100
AcDbLine
 10
193.7369104394091
 20
243.5309609297099
 30
0.0
 11
193.7369104394091
 21
264.53096092971
 31
0.0
  0
LINE
  5
2768F
330
18
100
AcDbEntity
  8
0
100
AcDbLine
 10
196.7369104394091
 20
244.5309609297098
 30
0.0
 11
196.7369104394091
 21
263.5309609297099
 31
0.0
  0
LINE
  5
27690
330
18
100
AcDbEntity
  8
0
100
AcDbLine
 10
186.7369104394093
 20
244.7023895011386
 30
0.0
 11
186.7369104394091
 21
263.3595323582814
 31
0.0
  0
LINE
  5
27691
330
18
100
AcDbEntity
  8
0
100
AcDbLine
 10
183.2369104394091
 20
248.8023895011374
 30
0.0
 11
183.2369104394091
 21
259.2595323582821
 31
0.0
  0
LINE
  5
27692
330
18
100
AcDbEntity
  8
0
100
AcDbLine
 10
183.2369104394091
 20
334.8023895011373
 30
0.0
 11
183.2369104394091
 21
345.2595323582817
 31
0.0
  0
ARC
  5
27693
330
18
100
AcDbEntity
  8
0
100
AcDbCircle
 10
173.3453951925894
 20
338.9809609297093
 30
0.0
 40
1.579751577084588
100
AcDbArc
 50
138.3436407292487
 51
221.656359270751
  0
LINE
  5
27694
330
18
100
AcDbEntity
  8
0
100
AcDbLine
 10
196.7369104394091
 20
349.5309609297096
 30
0.0
 11
196.7369104394091
 21
330.5309609297097
 31
0.0
  0
LINE
  5
27695
330
18
100
AcDbEntity
  8
0
100
AcDbLine
 10
186.7369104394095
 20
330.7023895011385
 30
0.0
 11
186.7369104394091
 21
349.3595323582811
 31
0.0
  0
LINE
  5
27696
330
18
100
AcDbEntity
  8
0
100
AcDbLine
 10
193.7369104394091
 20
329.5309609297096
 30
0.0
 11
193.7369104394091
 21
350.5309609297096
 31
0.0
  0
ARC
  5
27697
330
18
100
AcDbEntity
  8
0
100
AcDbCircle
 10
197.2369104394097
 20
340.0309609297096
 30
0.0
 40
10.50000000000042
100
AcDbArc
 50
154.7912347032448
 51
205.2087652967581
  0
LINE
  5
27698
330
18
100
AcDbEntity
  8
0
100
AcDbLine
 10
183.2369104394091
 20
342.1309609297101
 30
0.0
 11
172.1650922461806
 21
342.1309609297101
 31
0.0
  0
ARC
  5
27699
330
18
100
AcDbEntity
  8
0
100
AcDbCircle
 10
173.3453951925894
 20
341.0809609297091
 30
0.0
 40
1.579751577084588
100
AcDbArc
 50
138.3436407292487
 51
221.656359270751
  0
ARC
  5
2769A
330
18
100
AcDbEntity
  8
0
100
AcDbCircle
 10
170.9847892997716
 20
341.0809609297091
 30
0.0
 40
1.579751577084588
100
AcDbArc
 50
318.3436407292488
 51
41.65635927075117
  0
LINE
  5
2769B
330
18
100
AcDbEntity
  8
0
100
AcDbLine
 10
187.7369104394094
 20
350.5309609297096
 30
0.0
 11
183.2369104394091
 21
345.2595323582817
 31
0.0
  0
ARC
  5
2769C
330
18
100
AcDbEntity
  8
0
100
AcDbCircle
 10
195.7107069569789
 20
350.2298761162995
 30
0.0
 40
9.015903847971632
100
AcDbArc
 50
185.5396333185062
 51
207.8204388558356
  0
LINE
  5
2769D
330
18
100
AcDbEntity
  8
0
100
AcDbLine
 10
193.7369104394091
 20
350.5309609297096
 30
0.0
 11
187.7369104394094
 21
350.5309609297096
 31
0.0
  0
LINE
  5
2769E
330
18
100
AcDbEntity
  8
0
100
AcDbLine
 10
196.7369104394091
 20
349.5309609297096
 30
0.0
 11
193.7369104394091
 21
349.5309609297096
 31
0.0
  0
LINE
  5
2769F
330
18
100
AcDbEntity
  8
0
100
AcDbLine
 10
187.7369104394091
 20
344.5030968847091
 30
0.0
 11
193.7369104394091
 21
344.5030968847091
 31
0.0
  0
LINE
  5
276A0
330
18
100
AcDbEntity
  8
0
100
AcDbLine
 10
187.7369104394091
 20
346.0221342881617
 30
0.0
 11
193.7369104394091
 21
346.0221342881617
 31
0.0
  0
LINE
  5
276A1
330
18
100
AcDbEntity
  8
0
100
AcDbLine
 10
187.7369104394091
 20
344.503096884709
 30
0.0
 11
187.7369104394091
 21
346.0221342881617
 31
0.0
  0
LINE
  5
276A2
330
18
100
AcDbEntity
  8
0
100
AcDbLine
 10
183.2369104394091
 20
337.9309609297101
 30
0.0
 11
172.1650922461806
 21
337.9309609297103
 31
0.0
  0
LINE
  5
276A3
330
18
100
AcDbEntity
  8
0
100
AcDbLine
 10
187.7369104394096
 20
329.5309609297096
 30
0.0
 11
183.2369104394091
 21
334.8023895011376
 31
0.0
  0
LINE
  5
276A4
330
18
100
AcDbEntity
  8
0
100
AcDbLine
 10
193.7369104394091
 20
334.0397875712572
 30
0.0
 11
187.7369104394091
 21
334.0397875712572
 31
0.0
  0
LINE
  5
276A5
330
18
100
AcDbEntity
  8
0
100
AcDbLine
 10
193.7369104394091
 20
335.55882497471
 30
0.0
 11
187.7369104394091
 21
335.55882497471
 31
0.0
  0
ARC
  5
276A6
330
18
100
AcDbEntity
  8
0
100
AcDbCircle
 10
195.7107069569789
 20
329.8320457431198
 30
0.0
 40
9.015903847971632
100
AcDbArc
 50
152.1795611441641
 51
174.4603666814936
  0
LINE
  5
276A7
330
18
100
AcDbEntity
  8
0
100
AcDbLine
 10
187.7369104394091
 20
334.0397875712572
 30
0.0
 11
187.7369104394091
 21
335.5588249747098
 31
0.0
  0
LINE
  5
276A8
330
18
100
AcDbEntity
  8
0
100
AcDbLine
 10
193.7369104394091
 20
329.5309609297096
 30
0.0
 11
187.7369104394091
 21
329.5309609297096
 31
0.0
  0
LINE
  5
276A9
330
18
100
AcDbEntity
  8
0
100
AcDbLine
 10
196.7369104394091
 20
330.5309609297097
 30
0.0
 11
193.7369104394091
 21
330.5309609297097
 31
0.0
  0
LINE
  5
276AA
330
18
100
AcDbEntity
  8
0
100
AcDbLine
 10
193.7369104394091
 20
264.53096092971
 30
0.0
 11
187.7369104394094
 21
264.53096092971
 31
0.0
  0
LINE
  5
276AB
330
18
100
AcDbEntity
  8
0
100
AcDbLine
 10
187.7369104394091
 20
260.0221342881618
 30
0.0
 11
193.7369104394091
 21
260.0221342881618
 31
0.0
  0
ARC
  5
276AC
330
18
100
AcDbEntity
  8
0
100
AcDbCircle
 10
195.7107069569789
 20
264.2298761162998
 30
0.0
 40
9.015903847971632
100
AcDbArc
 50
185.539633318506
 51
207.8204388558356
  0
LINE
  5
276AD
330
18
100
AcDbEntity
  8
0
100
AcDbLine
 10
187.7369104394094
 20
264.53096092971
 30
0.0
 11
183.2369104394091
 21
259.2595323582821
 31
0.0
  0
LINE
  5
276AE
330
18
100
AcDbEntity
  8
0
100
AcDbLine
 10
196.7369104394091
 20
263.5309609297099
 30
0.0
 11
193.7369104394091
 21
263.5309609297099
 31
0.0
  0
LINE
  5
276AF
330
18
100
AcDbEntity
  8
0
100
AcDbLine
 10
183.2369104394091
 20
256.5309609264101
 30
0.0
 11
173.180434787051
 21
256.5309609264104
 31
0.0
  0
LINE
  5
276B0
330
18
100
AcDbEntity
  8
0
100
AcDbLine
 10
183.2369104394091
 20
251.5309609330104
 30
0.0
 11
173.1804347870515
 21
251.5309609330106
 31
0.0
  0
ARC
  5
276B1
330
18
100
AcDbEntity
  8
0
100
AcDbCircle
 10
174.5855573404446
 20
252.7809609313598
 30
0.0
 40
1.880656636903949
100
AcDbArc
 50
138.3436407292576
 51
221.6563592707418
  0
ARC
  5
276B2
330
18
100
AcDbEntity
  8
0
100
AcDbCircle
 10
171.7753122336578
 20
255.2809609280596
 30
0.0
 40
1.880656636903949
100
AcDbArc
 50
318.3436407292578
 51
41.65635927074186
  0
ARC
  5
276B3
330
18
100
AcDbEntity
  8
0
100
AcDbCircle
 10
174.5855573404455
 20
255.2809609280596
 30
0.0
 40
1.880656636903949
100
AcDbArc
 50
138.3436407292576
 51
221.6563592707418
  0
ARC
  5
276B4
330
18
100
AcDbEntity
  8
0
100
AcDbCircle
 10
197.2369104394094
 20
254.03096092971
 30
0.0
 40
10.50000000000042
100
AcDbArc
 50
154.7912347032445
 51
205.2087652967578
  0
LINE
  5
276B5
330
18
100
AcDbEntity
  8
0
100
AcDbLine
 10
187.7369104394091
 20
258.5030968847096
 30
0.0
 11
193.7369104394091
 21
258.5030968847096
 31
0.0
  0
LINE
  5
276B6
330
18
100
AcDbEntity
  8
0
100
AcDbLine
 10
193.7369104394091
 20
249.5588249747102
 30
0.0
 11
187.7369104394091
 21
249.5588249747102
 31
0.0
  0
LINE
  5
276B7
330
18
100
AcDbEntity
  8
0
100
AcDbLine
 10
193.7369104394091
 20
248.0397875712577
 30
0.0
 11
187.7369104394091
 21
248.0397875712577
 31
0.0
  0
LINE
  5
276B8
330
18
100
AcDbEntity
  8
0
100
AcDbLine
 10
193.7369104394091
 20
243.5309609297099
 30
0.0
 11
187.7369104394091
 21
243.5309609297099
 31
0.0
  0
LINE
  5
276B9
330
18
100
AcDbEntity
  8
0
100
AcDbLine
 10
187.7369104394091
 20
248.0397875712577
 30
0.0
 11
187.7369104394091
 21
249.5588249747102
 31
0.0
  0
ARC
  5
276BA
330
18
100
AcDbEntity
  8
0
100
AcDbCircle
 10
195.7107069569789
 20
243.83204574312
 30
0.0
 40
9.015903847971632
100
AcDbArc
 50
152.179561144164
 51
174.4603666814936
  0
LINE
  5
276BB
330
18
100
AcDbEntity
  8
0
100
AcDbLine
 10
187.7369104394096
 20
243.5309609297099
 30
0.0
 11
183.2369104394091
 21
248.8023895011377
 31
0.0
  0
LINE
  5
276BC
330
18
100
AcDbEntity
  8
0
100
AcDbLine
 10
196.7369104394091
 20
244.5309609297098
 30
0.0
 11
193.7369104394091
 21
244.5309609297098
 31
0.0
  0
LINE
  5
276C5
330
18
100
AcDbEntity
  8
0
100
AcDbLine
 10
201.7369104394087
 20
264.53096092971
 30
0.0
 11
201.7369104394087
 21
243.5309609297099
 31
0.0
  0
LINE
  5
276C6
330
18
100
AcDbEntity
  8
0
100
AcDbLine
 10
198.7369104394091
 20
243.5309609297099
 30
0.0
 11
198.7369104394091
 21
264.53096092971
 31
0.0
  0
CIRCLE
  5
276CB
330
18
100
AcDbEntity
  8
DIMENSION
  6
CONTINUOUS
100
AcDbCircle
 10
207.9510061825515
 20
265.1793660282773
 30
0.0
 40
3.5
  0
CIRCLE
  5
276CC
330
18
100
AcDbEntity
  8
0
100
AcDbCircle
 10
207.9510061825515
 20
265.1793660282773
 30
0.0
 40
4.0
  0
LWPOLYLINE
  5
276CE
330
18
100
AcDbEntity
  8
DIMENSION
  6
CONTINUOUS
100
AcDbPolyline
 90
        6
 70
     1
 43
0.0
 10
250.2496746913148
 20
213.5115531482619
 10
248.5186790039108
 20
213.4511054468719
 10
247.6008319152035
 20
214.9199678353094
 10
248.413980513901
 20
216.4492779251395
 10
250.144976201305
 20
216.5097256265299
 10
251.0628232900125
 20
215.0408632380919
  0
CIRCLE
  5
276CF
330
18
100
AcDbEntity
  8
0
100
AcDbCircle
 10
249.3318276026089
 20
214.9804155367009
 30
0.0
 40
4.0
  0
CIRCLE
  5
276D0
330
18
100
AcDbEntity
  8
DIMENSION
  6
CONTINUOUS
100
AcDbCircle
 10
249.3318276026089
 20
214.9804155367009
 30
0.0
 40
3.5
  0
LINE
  5
276D2
330
18
100
AcDbEntity
  8
中心線
 48
0.8
100
AcDbLine
 10
224.5366399608401
 20
225.3306904511404
 30
0.0
 11
208.9802907747359
 21
209.7743412650364
 31
0.0
  0
ARC
  5
276D3
330
18
100
AcDbEntity
  8
中心線
 48
0.8
100
AcDbCircle
 10
289.2369104394092
 20
290.0309609297095
 30
0.0
 40
102.4999999999999
100
AcDbArc
 50
218.8482301570043
 51
231.1517698430211
  0
LINE
  5
276DA
330
18
100
AcDbEntity
  8
0
100
AcDbLine
 10
201.7369104394088
 20
350.5309609297096
 30
0.0
 11
201.7369104394088
 21
329.5309609297096
 31
0.0
  0
LINE
  5
276DB
330
18
100
AcDbEntity
  8
0
100
AcDbLine
 10
198.7369104394091
 20
329.5309609297096
 30
0.0
 11
198.7369104394091
 21
350.5309609297096
 31
0.0
  0
LINE
  5
276DC
330
18
100
AcDbEntity
  8
0
100
AcDbLine
 10
202.7369104394091
 20
349.0309609297097
 30
0.0
 11
201.7369104394084
 21
349.0309609297097
 31
0.0
  0
LINE
  5
276DE
330
18
100
AcDbEntity
  8
0
100
AcDbLine
 10
201.7369104394088
 20
350.5309609297096
 30
0.0
 11
198.7369104394091
 21
350.5309609297096
 31
0.0
  0
LINE
  5
276DF
330
18
100
AcDbEntity
  8
0
100
AcDbLine
 10
198.7369104394091
 20
344.503096884709
 30
0.0
 11
201.7369104394088
 21
344.503096884709
 31
0.0
  0
LINE
  5
276E0
330
18
100
AcDbEntity
  8
0
100
AcDbLine
 10
198.7369104394091
 20
346.0221342881617
 30
0.0
 11
201.7369104394088
 21
346.0221342881617
 31
0.0
  0
LWPOLYLINE
  5
276E1
330
18
100
AcDbEntity
  8
DIMENSION
  6
CONTINUOUS
100
AcDbPolyline
 90
        6
 70
     1
 43
0.0
 10
207.561379527573
 20
263.4917075722658
 10
206.2946377592448
 20
264.6729633814735
 10
206.6842644142218
 20
266.3606218374848
 10
208.3406328375286
 20
266.8670244842891
 10
209.6073746058573
 20
265.6857686750813
 10
209.2177479508803
 20
263.99811021907
  0
LINE
  5
276E2
330
18
100
AcDbEntity
  8
0
100
AcDbLine
 10
201.7369104394088
 20
334.0397875712572
 30
0.0
 11
198.7369104394091
 21
334.0397875712572
 31
0.0
  0
LINE
  5
276E3
330
18
100
AcDbEntity
  8
0
100
AcDbLine
 10
202.7369104394091
 20
331.0309609297096
 30
0.0
 11
201.7369104394088
 21
331.0309609297096
 31
0.0
  0
LINE
  5
276E4
330
18
100
AcDbEntity
  8
0
100
AcDbLine
 10
201.7369104394088
 20
335.55882497471
 30
0.0
 11
198.7369104394091
 21
335.55882497471
 31
0.0
  0
LINE
  5
276E5
330
18
100
AcDbEntity
  8
0
100
AcDbLine
 10
201.7369104394088
 20
329.5309609297096
 30
0.0
 11
198.7369104394091
 21
329.5309609297096
 31
0.0
  0
CIRCLE
  5
276FE
330
18
100
AcDbEntity
  8
DIMENSION
  6
CONTINUOUS
100
AcDbCircle
 10
214.1863650464018
 20
329.9360437665096
 30
0.0
 40
3.5
  0
CIRCLE
  5
276FF
330
18
100
AcDbEntity
  8
0
100
AcDbCircle
 10
214.1863650464018
 20
329.9360437665096
 30
0.0
 40
4.0
  0
LWPOLYLINE
  5
27700
330
18
100
AcDbEntity
  8
DIMENSION
  6
CONTINUOUS
100
AcDbPolyline
 90
        6
 70
     1
 43
0.0
 10
212.7175026579624
 20
329.0181966778037
 10
212.657054956572
 20
330.7491923652078
 10
214.1259173450098
 20
331.6670394539153
 10
215.6552274348398
 20
330.8538908552177
 10
215.7156751362303
 20
329.1228951678137
 10
214.2468127477925
 20
328.2050480791061
  0
LINE
  5
27701
330
18
100
AcDbEntity
  8
0
100
AcDbLine
 10
202.7369104394091
 20
263.0309609297099
 30
0.0
 11
201.7369104394084
 21
263.0309609297099
 31
0.0
  0
LINE
  5
27702
330
18
100
AcDbEntity
  8
0
100
AcDbLine
 10
201.7369104394087
 20
264.53096092971
 30
0.0
 11
198.7369104394091
 21
264.53096092971
 31
0.0
  0
LINE
  5
27703
330
18
100
AcDbEntity
  8
0
100
AcDbLine
 10
198.7369104394091
 20
260.0221342881618
 30
0.0
 11
201.7369104394087
 21
260.0221342881618
 31
0.0
  0
CIRCLE
  5
27717
330
18
100
AcDbEntity
  8
0
100
AcDbCircle
 10
289.2369104394092
 20
290.0309609297095
 30
0.0
 40
17.5
  0
CIRCLE
  5
27719
330
18
100
AcDbEntity
  8
DIMENSION
  6
CONTINUOUS
100
AcDbCircle
 10
364.2874558324173
 20
250.1258780929088
 30
0.0
 40
3.5
  0
CIRCLE
  5
2771A
330
18
100
AcDbEntity
  8
0
100
AcDbCircle
 10
364.2874558324173
 20
250.1258780929088
 30
0.0
 40
4.0
  0
LINE
  5
2771C
330
18
100
AcDbEntity
  8
中心線
 48
0.8
100
AcDbLine
 10
353.9371809179783
 20
225.3306904511403
 30
0.0
 11
369.4935301040823
 21
209.7743412650364
 31
0.0
  0
ARC
  5
2771D
330
18
100
AcDbEntity
  8
中心線
 48
0.8
100
AcDbCircle
 10
289.2369104394092
 20
290.0309609297095
 30
0.0
 40
102.4999999999999
100
AcDbArc
 50
308.8482301569789
 51
321.1517698429956
  0
LINE
  5
2771E
330
18
100
AcDbEntity
  8
中心線
100
AcDbLine
 10
334.5494489111414
 20
225.3179494308788
 30
0.0
 11
341.4323661473543
 21
215.4881248994108
 31
0.0
  0
ARC
  5
2771F
330
18
100
AcDbEntity
  8
中心線
100
AcDbCircle
 10
289.2369104394092
 20
290.0309609297095
 30
0.0
 40
85.0
100
AcDbArc
 50
296.4454352684863
 51
313.5545647315103
  0
CIRCLE
  5
27720
330
18
100
AcDbEntity
  8
0
100
AcDbCircle
 10
314.0885053408414
 20
208.7450566728517
 30
0.0
 40
4.0
  0
CIRCLE
  5
27721
330
18
100
AcDbEntity
  8
DIMENSION
  6
CONTINUOUS
100
AcDbCircle
 10
314.0885053408414
 20
208.7450566728517
 30
0.0
 40
3.5
  0
LWPOLYLINE
  5
27722
330
18
100
AcDbEntity
  8
DIMENSION
  6
CONTINUOUS
100
AcDbPolyline
 90
        6
 70
     1
 43
0.0
 10
315.7761637968535
 20
208.3554300178731
 10
314.5949079876455
 20
207.0886882495448
 10
312.9072495316338
 20
207.478314904522
 10
312.4008468848296
 20
209.1346833278286
 10
313.5821026940373
 20
210.4014250961574
 10
315.2697611500491
 20
210.0117984411804
  0
CIRCLE
  5
27723
330
18
100
AcDbEntity
  8
0
100
AcDbCircle
 10
337.9827070457197
 20
220.387284182855
 30
0.0
 40
3.0
  0
HATCH
  5
27724
330
18
100
AcDbEntity
  8
DIMENSION
  6
BYBLOCK
 62
     0
100
AcDbHatch
 10
0.0
 20
0.0
 30
0.0
210
0.0
220
0.0
230
1.0
  2
ANSI31
 70
     0
 71
     0
 91
        4
 92
        7
 72
     1
 73
     1
 93
        3
 10
335.1821751230671
 20
221.4629332660618
 42
0.0088242164717323
 10
337.9827070457197
 20
220.387284182855
 42
0.0
 10
335.525250912853
 20
218.6665548738019
 42
-0.2493796996436278
 97
        0
 92
        7
 72
     1
 73
     1
 93
        3
 10
337.9827070457197
 20
220.387284182855
 42
-0.0088242164717323
 10
335.1821751230671
 20
221.4629332660618
 42
-0.1494012440317256
 10
336.2619777366666
 20
222.8447403157221
 42
0.0
 97
        0
 92
        7
 72
     1
 73
     1
 93
        3
 10
337.9827070457197
 20
220.387284182855
 42
0.0
 10
340.4401631785868
 20
222.108013491908
 42
-0.2400272838228544
 10
340.8194528659012
 20
219.4111319653786
 42
-0.0088242164717324
 97
        0
 92
        7
 72
     1
 73
     1
 93
        3
 10
340.8194528659012
 20
219.4111319653786
 42
-0.1584343322340092
 10
339.7034363547731
 20
217.929828049988
 42
0.0
 10
337.9827070457197
 20
220.387284182855
 42
0.0088242164717324
 97
        0
 75
     0
 76
     1
 52
55.0
 41
1.0
 77
     0
 78
     1
 53
260.0
 43
-97.12802300630208
 44
314.0431929414806
 45
-0.123100969126526
 46
0.0217060222083663
 79
     0
 47
0.0130930922504628
 98
        4
 10
335.3922265824242
 20
220.4445372123479
 10
336.3701984765167
 20
221.6729661588451
 10
339.5598484323791
 20
220.5645670928295
 10
340.099869356623
 20
219.199833547394
  0
LINE
  5
27725
330
18
100
AcDbEntity
  8
DIMENSION
  6
BYBLOCK
 62
     0
100
AcDbLine
 10
336.2619777366666
 20
222.8447403157221
 30
0.0
 11
339.7034363547731
 21
217.929828049988
 31
0.0
  0
LINE
  5
27726
330
18
100
AcDbEntity
  8
DIMENSION
  6
BYBLOCK
 62
     0
100
AcDbLine
 10
335.525250912853
 20
218.6665548738019
 30
0.0
 11
340.4401631785868
 21
222.108013491908
 31
0.0
  0
LWPOLYLINE
  5
2772A
330
18
100
AcDbEntity
  8
DIMENSION
  6
CONTINUOUS
100
AcDbPolyline
 90
        6
 70
     1
 43
0.0
 10
365.7563182208563
 20
251.0437251816151
 10
365.8167659222467
 20
249.3127294942111
 10
364.3479035338086
 20
248.3948824055036
 10
362.8185934439791
 20
249.2080310042013
 10
362.7581457425886
 20
250.9390266916053
 10
364.2270081310268
 20
251.8568737803127
  0
CIRCLE
  5
2772D
330
18
100
AcDbEntity
  8
0
100
AcDbCircle
 10
370.5228146962669
 20
314.8825558311425
 30
0.0
 40
4.0
  0
LWPOLYLINE
  5
2773F
330
18
100
AcDbEntity
  8
DIMENSION
  6
CONTINUOUS
100
AcDbPolyline
 90
        6
 70
     1
 43
0.0
 10
370.9124413512455
 20
316.5702142871541
 10
372.1791831195738
 20
315.3889584779463
 10
371.7895564645967
 20
313.7013000219346
 10
370.13318804129
 20
313.1948973751303
 10
368.8664462729613
 20
314.3761531843381
 10
369.2560729279381
 20
316.0638116403498
  0
CIRCLE
  5
27740
330
18
100
AcDbEntity
  8
DIMENSION
  6
CONTINUOUS
100
AcDbCircle
 10
370.5228146962669
 20
314.8825558311425
 30
0.0
 40
3.5
  0
LWPOLYLINE
  5
27744
330
18
100
AcDbEntity
  8
DIMENSION
  6
CONTINUOUS
100
AcDbPolyline
 90
        6
 70
     1
 43
0.0
 10
262.6976570819646
 20
371.7064918415457
 10
263.8789128911728
 20
372.9732336098738
 10
265.5665713471841
 20
372.5836069548968
 10
266.0729739939885
 20
370.9272385315902
 10
264.8917181847808
 20
369.6604967632613
 10
263.2040597287689
 20
370.0501234182385
  0
CIRCLE
  5
27745
330
18
100
AcDbEntity
  8
0
100
AcDbCircle
 10
264.3853155379766
 20
371.3168651865673
 30
0.0
 40
4.0
  0
CIRCLE
  5
27746
330
18
100
AcDbEntity
  8
DIMENSION
  6
CONTINUOUS
100
AcDbCircle
 10
264.3853155379766
 20
371.3168651865673
 30
0.0
 40
3.5
  0
LINE
  5
27749
330
18
100
AcDbEntity
  8
中心線
 48
0.8
100
AcDbLine
 10
224.5366399608401
 20
354.7312314082786
 30
0.0
 11
208.9802907747359
 21
370.2875805943826
 31
0.0
  0
ARC
  5
2774A
330
18
100
AcDbEntity
  8
中心線
 48
0.8
100
AcDbCircle
 10
289.2369104394092
 20
290.0309609297095
 30
0.0
 40
102.4999999999999
100
AcDbArc
 50
128.8482301569789
 51
141.1517698429954
  0
LINE
  5
2774D
330
18
100
AcDbEntity
  8
0
100
AcDbLine
 10
198.7369104394091
 20
258.5030968847095
 30
0.0
 11
201.7369104394087
 21
258.5030968847095
 31
0.0
  0
LINE
  5
2774E
330
18
100
AcDbEntity
  8
0
100
AcDbLine
 10
202.7369104394091
 20
245.0309609297097
 30
0.0
 11
201.7369104394087
 21
245.0309609297097
 31
0.0
  0
LINE
  5
27750
330
18
100
AcDbEntity
  8
0
100
AcDbLine
 10
201.7369104394087
 20
248.0397875712577
 30
0.0
 11
198.7369104394091
 21
248.0397875712577
 31
0.0
  0
LINE
  5
27751
330
18
100
AcDbEntity
  8
0
100
AcDbLine
 10
201.7369104394087
 20
249.5588249747102
 30
0.0
 11
198.7369104394091
 21
249.5588249747102
 31
0.0
  0
LINE
  5
27752
330
18
100
AcDbEntity
  8
0
100
AcDbLine
 10
201.7369104394087
 20
243.5309609297099
 30
0.0
 11
198.7369104394091
 21
243.5309609297099
 31
0.0
  0
LINE
  5
27754
330
18
100
AcDbEntity
  8
中心線
100
AcDbLine
 10
243.9243719676768
 20
354.7439724285398
 30
0.0
 11
237.041454731464
 21
364.5737969600077
 31
0.0
  0
CIRCLE
  5
27755
330
18
100
AcDbEntity
  8
0
100
AcDbCircle
 10
240.4911138330985
 20
359.6746376765633
 30
0.0
 40
3.0
  0
HATCH
  5
27756
330
18
100
AcDbEntity
  8
DIMENSION
  6
BYBLOCK
 62
     0
100
AcDbHatch
 10
0.0
 20
0.0
 30
0.0
210
0.0
220
0.0
230
1.0
  2
ANSI31
 70
     0
 71
     0
 91
        4
 92
        7
 72
     1
 73
     1
 93
        3
 10
243.291645755751
 20
358.5989885933567
 42
0.0088242164717323
 10
240.4911138330985
 20
359.6746376765636
 42
0.0
 10
242.9485699659652
 20
361.3953669856166
 42
-0.2493796996436278
 97
        0
 92
        7
 72
     1
 73
     1
 93
        3
 10
240.4911138330985
 20
359.6746376765636
 42
-0.0088242164717323
 10
243.291645755751
 20
358.5989885933567
 42
-0.1494012440317256
 10
242.2118431421514
 20
357.2171815436965
 42
0.0
 97
        0
 92
        7
 72
     1
 73
     1
 93
        3
 10
240.4911138330985
 20
359.6746376765636
 42
0.0
 10
238.0336577002315
 20
357.9539083675105
 42
-0.2400272838228544
 10
237.6543680129171
 20
360.6507898940398
 42
-0.0088242164717324
 97
        0
 92
        7
 72
     1
 73
     1
 93
        3
 10
237.6543680129171
 20
360.6507898940398
 42
-0.1584343322340092
 10
238.7703845240451
 20
362.1320938094303
 42
0.0
 10
240.4911138330985
 20
359.6746376765636
 42
0.0088242164717324
 97
        0
 75
     0
 76
     1
 52
235.0
 41
1.0
 77
     0
 78
     1
 53
80.00000000000007
 43
675.6018438851206
 44
266.0187289179381
 45
0.123100969126526
 46
-0.0217060222083662
 79
     0
 47
0.0130930922504628
 98
        4
 10
243.0815942963943
 20
359.6173846470708
 10
242.1036224023016
 20
358.3889557005736
 10
238.9139724464389
 20
359.4973547665891
 10
238.3739515221955
 20
360.8620883120245
  0
LINE
  5
27757
330
18
100
AcDbEntity
  8
DIMENSION
  6
BYBLOCK
 62
     0
100
AcDbLine
 10
242.9485699659652
 20
361.3953669856166
 30
0.0
 11
238.0336577002315
 21
357.9539083675105
 31
0.0
  0
LINE
  5
27758
330
18
100
AcDbEntity
  8
DIMENSION
  6
BYBLOCK
 62
     0
100
AcDbLine
 10
242.2118431421514
 20
357.2171815436965
 30
0.0
 11
238.7703845240451
 21
362.1320938094303
 31
0.0
  0
ARC
  5
27759
330
18
100
AcDbEntity
  8
中心線
100
AcDbCircle
 10
289.2369104394092
 20
290.0309609297095
 30
0.0
 40
85.0
100
AcDbArc
 50
116.4454352684861
 51
133.5545647315137
  0
LINE
  5
27760
330
18
100
AcDbEntity
  8
中心線
 48
0.8
100
AcDbLine
 10
353.9371809179783
 20
354.7312314082785
 30
0.0
 11
369.4935301040823
 21
370.287580594382
 31
0.0
  0
ARC
  5
27761
330
18
100
AcDbEntity
  8
中心線
 48
0.8
100
AcDbCircle
 10
289.2369104394092
 20
290.0309609297095
 30
0.0
 40
102.4999999999999
100
AcDbArc
 50
38.84823015700435
 51
51.15176984302108
  0
CIRCLE
  5
27762
330
18
100
AcDbEntity
  8
DIMENSION
  6
CONTINUOUS
100
AcDbCircle
 10
329.1419932762101
 20
365.0815063227171
 30
0.0
 40
3.5
  0
CIRCLE
  5
27763
330
18
100
AcDbEntity
  8
0
100
AcDbCircle
 10
329.1419932762101
 20
365.0815063227171
 30
0.0
 40
4.0
  0
LWPOLYLINE
  5
27764
330
18
100
AcDbEntity
  8
DIMENSION
  6
CONTINUOUS
100
AcDbPolyline
 90
        6
 70
     1
 43
0.0
 10
328.2241461875035
 20
366.5503687111566
 10
329.9551418749075
 20
366.6108164125471
 10
330.872988963615
 20
365.1419540241093
 10
330.0598403649173
 20
363.6126439342794
 10
328.3288446775134
 20
363.5521962328887
 10
327.4109975888059
 20
365.0210586213265
  0
LINE
  5
2776A
330
18
100
AcDbEntity
  8
中心線
100
AcDbLine
 10
289.2369104394092
 20
385.0309609297094
 30
0.0
 11
289.2369104394092
 21
195.0309609297094
 31
0.0
  0
SOLID
  5
277A3
330
18
100
AcDbEntity
  8
0
  6
BYBLOCK
 62
     0
100
AcDbTrace
 10
-3.559853602952671
 20
292.3403620097093
 30
0.0
 11
0.4401463970473288
 21
290.0309609297091
 31
0.0
 12
-3.559853602952671
 22
287.7215598497091
 32
0.0
 13
-3.559853602952671
 23
287.7215598497091
 33
0.0
  0
SOLID
  5
277A4
330
18
100
AcDbEntity
  8
0
  6
BYBLOCK
 62
     0
100
AcDbTrace
 10
5.440146397047326
 20
292.3403620097093
 30
0.0
 11
1.440146397047328
 21
290.0309609297091
 31
0.0
 12
5.440146397047326
 22
287.7215598497091
 32
0.0
 13
5.440146397047326
 23
287.7215598497091
 33
0.0
  0
LINE
  5
27A4A
330
18
100
AcDbEntity
  8
中心線
 48
0.2
100
AcDbLine
 10
139.4401463970471
 20
68.02480953708273
 30
0.0
 11
139.4401463970471
 21
79.13524460426692
 31
0.0
  0
LINE
  5
27A4B
330
18
100
AcDbEntity
  8
ｷｬｯﾌ_ﾎ_ﾙﾄ
100
AcDbLine
 10
141.890146397047
 20
79.56627802606519
 30
0.0
 11
136.9901463970475
 21
79.56627802606519
 31
0.0
  0
LINE
  5
27A4C
330
18
100
AcDbEntity
  8
ｷｬｯﾌ_ﾎ_ﾙﾄ
100
AcDbLine
 10
142.9401463970473
 20
79.266278026065
 30
0.0
 11
135.9401463970473
 21
79.266278026065
 31
0.0
  0
LINE
  5
27A4D
330
18
100
AcDbEntity
  8
ｷｬｯﾌ_ﾎ_ﾙﾄ
100
AcDbLine
 10
142.9401463970473
 20
78.76627802606545
 30
0.0
 11
135.9401463970473
 21
78.76627802606545
 31
0.0
  0
LINE
  5
27A4E
330
18
100
AcDbEntity
  8
ｷｬｯﾌ_ﾎ_ﾙﾄ
100
AcDbLine
 10
135.9401463970473
 20
79.266278026065
 30
0.0
 11
135.9401463970473
 21
78.76627802606545
 31
0.0
  0
LINE
  5
27A4F
330
18
100
AcDbEntity
  8
ｷｬｯﾌ_ﾎ_ﾙﾄ
100
AcDbLine
 10
135.9401463970473
 20
79.266278026065
 30
0.0
 11
136.9901463970475
 21
79.56627802606519
 31
0.0
  0
LINE
  5
27A50
330
18
100
AcDbEntity
  8
中心線
 48
0.5
100
AcDbLine
 10
139.4401463970471
 20
80.56627802606518
 30
0.0
 11
139.4401463970471
 21
71.76627802606545
 31
0.0
  0
LINE
  5
27A51
330
18
100
AcDbEntity
  8
ｷｬｯﾌ_ﾎ_ﾙﾄ
100
AcDbLine
 10
142.9401463970473
 20
79.266278026065
 30
0.0
 11
142.9401463970473
 21
78.76627802606545
 31
0.0
  0
LINE
  5
27A52
330
18
100
AcDbEntity
  8
ｷｬｯﾌ_ﾎ_ﾙﾄ
100
AcDbLine
 10
142.9401463970473
 20
79.266278026065
 30
0.0
 11
141.890146397047
 21
79.56627802606519
 31
0.0
  0
LINE
  5
27A8D
330
18
100
AcDbEntity
  8
中心線
 48
0.2
100
AcDbLine
 10
-29.55985360295363
 20
68.02480953709075
 30
0.0
 11
-29.55985360295258
 21
79.13524460427495
 31
0.0
  0
LINE
  5
27A8E
330
18
100
AcDbEntity
  8
中心線
 48
0.5
100
AcDbLine
 10
-29.55985360295244
 20
80.56627802607319
 30
0.0
 11
-29.55985360295329
 21
71.76627802607345
 31
0.0
  0
LINE
  5
27A8F
330
18
100
AcDbEntity
  8
ｷｬｯﾌ_ﾎ_ﾙﾄ
100
AcDbLine
 10
-33.0598536029526
 20
78.7662780260738
 30
0.0
 11
-26.0598536029526
 21
78.76627802607313
 31
0.0
  0
LINE
  5
27A90
330
18
100
AcDbEntity
  8
ｷｬｯﾌ_ﾎ_ﾙﾄ
100
AcDbLine
 10
-33.05985360295258
 20
79.26627802607334
 30
0.0
 11
-26.05985360295258
 21
79.26627802607267
 31
0.0
  0
LINE
  5
27A91
330
18
100
AcDbEntity
  8
ｷｬｯﾌ_ﾎ_ﾙﾄ
100
AcDbLine
 10
-33.05985360295258
 20
79.26627802607334
 30
0.0
 11
-32.00985360295236
 21
79.56627802607342
 31
0.0
  0
LINE
  5
27A92
330
18
100
AcDbEntity
  8
ｷｬｯﾌ_ﾎ_ﾙﾄ
100
AcDbLine
 10
-26.05985360295258
 20
79.26627802607267
 30
0.0
 11
-27.10985360295274
 21
79.56627802607295
 31
0.0
  0
LINE
  5
27A93
330
18
100
AcDbEntity
  8
ｷｬｯﾌ_ﾎ_ﾙﾄ
100
AcDbLine
 10
-26.05985360295258
 20
79.26627802607267
 30
0.0
 11
-26.0598536029526
 21
78.76627802607313
 31
0.0
  0
LINE
  5
27A94
330
18
100
AcDbEntity
  8
ｷｬｯﾌ_ﾎ_ﾙﾄ
100
AcDbLine
 10
-32.00985360295236
 20
79.56627802607342
 30
0.0
 11
-27.10985360295274
 21
79.56627802607295
 31
0.0
  0
LINE
  5
27A95
330
18
100
AcDbEntity
  8
ｷｬｯﾌ_ﾎ_ﾙﾄ
100
AcDbLine
 10
-33.05985360295258
 20
79.26627802607334
 30
0.0
 11
-33.0598536029526
 21
78.7662780260738
 31
0.0
  0
CIRCLE
  5
27C18
330
18
100
AcDbEntity
  8
0
100
AcDbCircle
 10
54.94014639704733
 20
290.0309609297091
 30
0.0
 40
88.9
  0
ARC
  5
27C19
330
18
100
AcDbEntity
  8
0
100
AcDbCircle
 10
-16.55985360295267
 20
361.5309609297093
 30
0.0
 40
15.0
100
AcDbArc
 50
89.99999999999994
 51
180.0
  0
ARC
  5
27C1A
330
18
100
AcDbEntity
  8
0
100
AcDbCircle
 10
126.4401463970471
 20
361.530960929709
 30
0.0
 40
15.0
100
AcDbArc
 50
0.0
 51
90.0
  0
ARC
  5
27C1B
330
18
100
AcDbEntity
  8
0
100
AcDbCircle
 10
126.4401463970471
 20
218.5309609297088
 30
0.0
 40
15.0
100
AcDbArc
 50
269.9999999999997
 51
0.0
  0
ARC
  5
27C1C
330
18
100
AcDbEntity
  8
0
100
AcDbCircle
 10
-16.55985360295267
 20
218.5309609297091
 30
0.0
 40
15.0
100
AcDbArc
 50
180.0
 51
270.0
  0
ARC
  5
27C4A
330
18
100
AcDbEntity
  8
0
100
AcDbCircle
 10
217.7369104394074
 20
361.5309609297093
 30
0.0
 40
15.0
100
AcDbArc
 50
89.99999999999994
 51
180.0
  0
LINE
  5
27C4B
330
18
100
AcDbEntity
  8
0
100
AcDbLine
 10
217.7369104394074
 20
376.5309609297094
 30
0.0
 11
360.7369104394073
 21
376.530960929709
 31
0.0
  0
LINE
  5
27C4D
330
18
100
AcDbEntity
  8
0
100
AcDbLine
 10
202.7369104394074
 20
218.5309609297093
 30
0.0
 11
202.7369104394074
 21
361.5309609297093
 31
0.0
  0
ARC
  5
27C4E
330
18
100
AcDbEntity
  8
0
100
AcDbCircle
 10
217.7369104394074
 20
218.5309609297093
 30
0.0
 40
15.0
100
AcDbArc
 50
180.0
 51
270.0
  0
LINE
  5
27C50
330
18
100
AcDbEntity
  8
0
100
AcDbLine
 10
360.7369104394072
 20
203.5309609297089
 30
0.0
 11
217.7369104394074
 21
203.5309609297097
 31
0.0
  0
ARC
  5
27C51
330
18
100
AcDbEntity
  8
0
100
AcDbCircle
 10
360.7369104394073
 20
218.530960929709
 30
0.0
 40
15.0
100
AcDbArc
 50
269.9999999999997
 51
0.0
  0
LINE
  5
27C52
330
18
100
AcDbEntity
  8
0
100
AcDbLine
 10
375.7369104394073
 20
218.530960929709
 30
0.0
 11
375.7369104394073
 21
361.5309609297093
 31
0.0
  0
ARC
  5
27C54
330
18
100
AcDbEntity
  8
0
100
AcDbCircle
 10
360.7369104394073
 20
361.5309609297093
 30
0.0
 40
15.0
100
AcDbArc
 50
0.0
 51
90.0
  0
ARC
  5
27C56
330
18
100
AcDbEntity
  8
破線
100
AcDbCircle
 10
289.2369104394075
 20
290.0309609297092
 30
0.0
 40
88.9
100
AcDbArc
 50
103.3436389724249
 51
166.6563610275753
  0
ARC
  5
27C57
330
18
100
AcDbEntity
  8
破線
100
AcDbCircle
 10
289.2369104394075
 20
290.0309609297092
 30
0.0
 40
88.9
100
AcDbArc
 50
13.34363897242522
 51
76.6563610275752
  0
ARC
  5
27C58
330
18
100
AcDbEntity
  8
破線
100
AcDbCircle
 10
289.2369104394075
 20
290.0309609297092
 30
0.0
 40
88.9
100
AcDbArc
 50
283.3436389724245
 51
346.6563610275747
  0
ARC
  5
27C59
330
18
100
AcDbEntity
  8
破線
100
AcDbCircle
 10
289.2369104394075
 20
290.0309609297092
 30
0.0
 40
88.9
100
AcDbArc
 50
193.3436389724244
 51
256.6563610275756
  0
ARC
  5
27C5B
330
18
100
AcDbEntity
  8
0
100
AcDbCircle
 10
289.2369104394092
 20
290.0309609297091
 30
0.0
 40
88.90000000000048
100
AcDbArc
 50
76.65636102757414
 51
103.3436389724257
  0
ARC
  5
27C5C
330
18
100
AcDbEntity
  8
0
100
AcDbCircle
 10
289.2369104394092
 20
290.0309609297092
 30
0.0
 40
88.90000000000048
100
AcDbArc
 50
166.6563610275741
 51
193.3436389724258
  0
ARC
  5
27C5D
330
18
100
AcDbEntity
  8
0
100
AcDbCircle
 10
289.2369104394093
 20
290.0309609297092
 30
0.0
 40
88.90000000000048
100
AcDbArc
 50
256.656361027574
 51
283.3436389724258
  0
ARC
  5
27C5E
330
18
100
AcDbEntity
  8
0
100
AcDbCircle
 10
289.2369104394092
 20
290.0309609297091
 30
0.0
 40
88.90000000000048
100
AcDbArc
 50
346.656361027574
 51
13.34363897242588
  0
CIRCLE
  5
27C63
330
18
100
AcDbEntity
  8
0
100
AcDbCircle
 10
289.2369104394075
 20
290.0309609297092
 30
0.0
 40
19.39999999999998
  0
LINE
  5
27D5A
330
18
100
AcDbEntity
  8
0
100
AcDbLine
 10
-63.10216306812105
 20
350.041849092247
 30
0.0
 11
-51.06020421454436
 21
350.0418490922466
 31
0.0
  0
LINE
  5
27D5B
330
18
100
AcDbEntity
  8
0
100
AcDbLine
 10
-63.1021630681206
 20
346.041849092247
 30
0.0
 11
-51.05950737680621
 21
346.041849092247
 31
0.0
  0
LINE
  5
27D62
330
18
100
AcDbEntity
  8
0
100
AcDbLine
 10
-113.8098539290799
 20
350.0418490922478
 30
0.0
 11
-64.88274055145971
 21
350.041849092247
 31
0.0
  0
LINE
  5
27D63
330
18
100
AcDbEntity
  8
0
100
AcDbLine
 10
-113.4694240087017
 20
346.0418490922451
 30
0.0
 11
-64.88274055146018
 21
346.041849092247
 31
0.0
  0
ARC
  5
27D66
330
18
100
AcDbEntity
  8
細線
100
AcDbCircle
 10
-66.00683859449748
 20
349.0418490918473
 30
0.0
 40
1.50452531090732
100
AcDbArc
 50
318.3436407292436
 51
41.6563592707564
  0
ARC
  5
27D67
330
18
100
AcDbEntity
  8
細線
100
AcDbCircle
 10
-66.00683859449748
 20
347.0418490926474
 30
0.0
 40
1.50452531090732
100
AcDbArc
 50
318.3436407292436
 51
41.6563592707564
  0
ARC
  5
27D68
330
18
100
AcDbEntity
  8
細線
100
AcDbCircle
 10
-63.75864250699908
 20
347.0418490926474
 30
0.0
 40
1.50452531090732
100
AcDbArc
 50
138.3436407292434
 51
221.6563592707564
  0
ARC
  5
27D69
330
18
100
AcDbEntity
  8
細線
100
AcDbCircle
 10
-61.97806502508353
 20
349.0418490918468
 30
0.0
 40
1.50452531090732
100
AcDbArc
 50
138.3436407292434
 51
221.6563592707564
  0
ARC
  5
27D6A
330
18
100
AcDbEntity
  8
細線
100
AcDbCircle
 10
-61.97806502508307
 20
347.041849092647
 30
0.0
 40
1.50452531090732
100
AcDbArc
 50
138.3436407292434
 51
221.6563592707564
  0
ARC
  5
27D6B
330
18
100
AcDbEntity
  8
細線
100
AcDbCircle
 10
-64.22626111258146
 20
349.0418490918468
 30
0.0
 40
1.50452531090732
100
AcDbArc
 50
318.3436407292436
 51
41.6563592707564
  0
LINE
  5
27D6C
330
18
100
AcDbEntity
  8
0
100
AcDbLine
 10
-37.55819852230286
 20
338.5299158172748
 30
0.0
 11
-37.56150850150891
 21
357.5299155289603
 31
0.0
  0
LINE
  5
27D6D
330
18
100
AcDbEntity
  8
0
100
AcDbLine
 10
-35.56168274128992
 20
358.5302639326496
 30
0.0
 11
-35.55802434321992
 21
337.5302642513133
 31
0.0
  0
LINE
  5
27D6E
330
18
100
AcDbEntity
  8
0
100
AcDbLine
 10
-32.55802438874376
 20
337.5307868796088
 30
0.0
 11
-32.56168278681377
 21
358.5307865609452
 31
0.0
  0
LINE
  5
27D6F
330
18
100
AcDbEntity
  8
0
100
AcDbLine
 10
-40.56168266541759
 20
358.5293928854901
 30
0.0
 11
-40.5580242673476
 21
337.5293932041538
 31
0.0
  0
LINE
  5
27D70
330
18
100
AcDbEntity
  8
0
100
AcDbLine
 10
-46.56168257437037
 20
358.5283476288986
 30
0.0
 11
-51.06076417350879
 21
353.2561351950183
 31
0.0
  0
LINE
  5
27D71
330
18
100
AcDbEntity
  8
0
100
AcDbLine
 10
-37.55819852230286
 20
338.5299158172748
 30
0.0
 11
-40.55819847677947
 21
338.5293931889794
 31
0.0
  0
ARC
  5
27D72
330
18
100
AcDbEntity
  8
0
100
AcDbCircle
 10
-37.05985351949277
 20
348.0300027778337
 30
0.0
 40
10.50000000000042
100
AcDbArc
 50
154.8012161684953
 51
205.2187467620018
  0
LINE
  5
27D73
330
18
100
AcDbEntity
  8
0
100
AcDbLine
 10
-51.06076417350879
 20
353.2561351950183
 30
0.0
 11
-51.05894244059243
 21
342.7989924965556
 31
0.0
  0
LINE
  5
27D74
330
18
100
AcDbEntity
  8
0
100
AcDbLine
 10
-47.56147848528996
 20
357.3567448658138
 30
0.0
 11
-47.55822823503229
 21
338.6996022917833
 31
0.0
  0
ARC
  5
27D75
330
18
100
AcDbEntity
  8
0
100
AcDbCircle
 10
-38.58428023154338
 20
337.8308218669651
 30
0.0
 40
9.015903847971632
100
AcDbArc
 50
152.1895426094149
 51
174.4703481467493
  0
LINE
  5
27D76
330
18
100
AcDbEntity
  8
0
100
AcDbLine
 10
-46.55802417630058
 20
337.5283479475624
 30
0.0
 11
-51.05894244059243
 21
342.7989924965556
 31
0.0
  0
LINE
  5
27D77
330
18
100
AcDbEntity
  8
0
100
AcDbLine
 10
-46.55907428707164
 20
343.5562119010933
 30
0.0
 11
-46.55880965642848
 21
342.0371745206914
 31
0.0
  0
LINE
  5
27D78
330
18
100
AcDbEntity
  8
0
100
AcDbLine
 10
-40.5580242673476
 20
337.5293932041538
 30
0.0
 11
-46.55802417630058
 21
337.5283479475624
 31
0.0
  0
LINE
  5
27D79
330
18
100
AcDbEntity
  8
0
100
AcDbLine
 10
-46.55880965642848
 20
342.0371745206914
 30
0.0
 11
-40.55880974747526
 21
342.0382197772828
 31
0.0
  0
LINE
  5
27D7A
330
18
100
AcDbEntity
  8
0
100
AcDbLine
 10
-46.55907428707164
 20
343.556211901093
 30
0.0
 11
-40.55907437811845
 21
343.5572571576845
 31
0.0
  0
ARC
  5
27D7B
330
18
100
AcDbEntity
  8
0
100
AcDbCircle
 10
-38.58783372598475
 20
358.2286519306185
 30
0.0
 40
9.015903847971632
100
AcDbArc
 50
185.5496147837488
 51
207.8304203210862
  0
LINE
  5
27D7C
330
18
100
AcDbEntity
  8
0
100
AcDbLine
 10
-46.56089709424292
 20
354.0195210557698
 30
0.0
 11
-46.56063246359972
 21
352.5004836753678
 31
0.0
  0
LINE
  5
27D7D
330
18
100
AcDbEntity
  8
0
100
AcDbLine
 10
-40.56063255464652
 20
352.5015289319592
 30
0.0
 11
-46.56063246359972
 21
352.5004836753678
 31
0.0
  0
LINE
  5
27D7E
330
18
100
AcDbEntity
  8
0
100
AcDbLine
 10
-40.56089718528972
 20
354.0205663123613
 30
0.0
 11
-46.56089709424292
 21
354.0195210557698
 31
0.0
  0
LINE
  5
27D7F
330
18
100
AcDbEntity
  8
0
100
AcDbLine
 10
-31.55828571806557
 20
339.0309610662793
 30
0.0
 11
-32.55828570289178
 21
339.0307868568472
 31
0.0
  0
LINE
  5
27D80
330
18
100
AcDbEntity
  8
0
100
AcDbLine
 10
-35.55856439245882
 20
340.6302642042728
 30
0.0
 11
-37.5585643621099
 21
340.6299157854091
 31
0.0
  0
LINE
  5
27D81
330
18
100
AcDbEntity
  8
0
100
AcDbLine
 10
-32.55802438874376
 20
337.5307868796088
 30
0.0
 11
-35.55802434321992
 21
337.5302642513133
 31
0.0
  0
LINE
  5
27D82
330
18
100
AcDbEntity
  8
0
100
AcDbLine
 10
-35.55880982334759
 20
342.0390908244423
 30
0.0
 11
-32.55880986887143
 21
342.0396134527379
 31
0.0
  0
LINE
  5
27D83
330
18
100
AcDbEntity
  8
0
100
AcDbLine
 10
-35.55907445399077
 20
343.5581282048441
 30
0.0
 11
-32.55907449951462
 21
343.5586508331396
 31
0.0
  0
LINE
  5
27D84
330
18
100
AcDbEntity
  8
0
100
AcDbLine
 10
-31.56142148783976
 20
357.030960793139
 30
0.0
 11
-32.56142147266575
 21
357.0307865837069
 31
0.0
  0
LINE
  5
27D85
330
18
100
AcDbEntity
  8
0
100
AcDbLine
 10
-35.56114269205102
 20
355.4302639796908
 30
0.0
 11
-37.56114266170209
 21
355.4299155608271
 31
0.0
  0
LINE
  5
27D86
330
18
100
AcDbEntity
  8
0
100
AcDbLine
 10
-32.5606326760427
 20
352.5029226074146
 30
0.0
 11
-35.56063263051885
 21
352.5023999791188
 31
0.0
  0
LINE
  5
27D87
330
18
100
AcDbEntity
  8
0
100
AcDbLine
 10
-32.56089730668587
 20
354.0219599878166
 30
0.0
 11
-35.56089726116204
 21
354.0214373595208
 31
0.0
  0
LINE
  5
27D88
330
18
100
AcDbEntity
  8
0
100
AcDbLine
 10
-37.56150850150891
 20
357.5299155289603
 30
0.0
 11
-40.56150845598549
 21
357.5293929006645
 31
0.0
  0
LINE
  5
27D89
330
18
100
AcDbEntity
  8
0
100
AcDbLine
 10
-40.56168266541759
 20
358.5293928854901
 30
0.0
 11
-46.56168257437082
 21
358.5283476288986
 31
0.0
  0
LINE
  5
27D8A
330
18
100
AcDbEntity
  8
0
100
AcDbLine
 10
-32.56168278681377
 20
358.5307865609452
 30
0.0
 11
-35.56168274128992
 21
358.5302639326496
 31
0.0
  0
LINE
  5
27D8B
330
18
100
AcDbEntity
  8
0
100
AcDbLine
 10
-31.56142148783976
 20
357.030960793139
 30
0.0
 11
-31.55828571806557
 21
339.0309610662793
 31
0.0
  0
LINE
  5
27D8D
330
18
100
AcDbEntity
  8
中心線
100
AcDbLine
 10
-27.88790463209624
 20
348.0309609296941
 30
0.0
 11
-54.19886558064035
 21
348.0309609296941
 31
0.0
  0
CIRCLE
  5
27E30
330
18
100
AcDbEntity
  8
細線
100
AcDbCircle
 10
30.23473734797616
 20
370.8387128085851
 30
0.0
 40
3.5
  0
ARC
  5
27E31
330
18
100
AcDbEntity
  8
細線
100
AcDbCircle
 10
30.47768448666754
 20
371.8910324785531
 30
0.0
 40
0.5
100
AcDbArc
 50
209.3463876628269
 51
304.6536123371801
  0
CIRCLE
  5
27E32
330
18
100
AcDbEntity
  8
細線
100
AcDbCircle
 10
30.23473734797616
 20
370.8387128085851
 30
0.0
 40
0.8299999999999998
  0
ARC
  5
27E33
330
18
100
AcDbEntity
  8
細線
100
AcDbCircle
 10
31.02459934572476
 20
370.1021545797177
 30
0.0
 40
0.5
100
AcDbArc
 50
89.34638766281469
 51
184.6536123371763
  0
ARC
  5
27E34
330
18
100
AcDbEntity
  8
細線
100
AcDbCircle
 10
29.20192821153618
 20
370.5229513674844
 30
0.0
 40
0.5
100
AcDbArc
 50
329.3463876628221
 51
64.6536123371782
  0
ARC
  5
27E35
330
18
100
AcDbEntity
  8
細線
100
AcDbCircle
 10
29.99179020928485
 20
369.7863931386172
 30
0.0
 40
0.5
100
AcDbArc
 50
29.34638766282701
 51
124.6536123371801
  0
ARC
  5
27E36
330
18
100
AcDbEntity
  8
細線
100
AcDbCircle
 10
29.44487535022735
 20
371.5752710374528
 30
0.0
 40
0.5
100
AcDbArc
 50
269.3463876628146
 51
4.653612337176351
  0
ARC
  5
27E37
330
18
100
AcDbEntity
  8
細線
100
AcDbCircle
 10
31.26754648441631
 20
371.1544742496856
 30
0.0
 40
0.5
100
AcDbArc
 50
149.3463876628223
 51
244.6536123371782
  0
CIRCLE
  5
27E38
330
18
100
AcDbEntity
  8
細線
100
AcDbCircle
 10
-19.66892519953185
 20
329.7013079851164
 30
0.0
 40
3.5
  0
ARC
  5
27E39
330
18
100
AcDbEntity
  8
細線
100
AcDbCircle
 10
-20.24123800490372
 20
330.6171999289653
 30
0.0
 40
0.5
100
AcDbArc
 50
254.3463876628269
 51
349.6536123371801
  0
CIRCLE
  5
27E3A
330
18
100
AcDbEntity
  8
細線
100
AcDbCircle
 10
-19.66892519953185
 20
329.7013079851164
 30
0.0
 40
0.8299999999999998
  0
ARC
  5
27E3B
330
18
100
AcDbEntity
  8
細線
100
AcDbCircle
 10
-18.58958310635134
 20
329.7389994415551
 30
0.0
 40
0.5
100
AcDbArc
 50
134.3463876628147
 51
229.6536123371763
  0
ARC
  5
27E3C
330
18
100
AcDbEntity
  8
細線
100
AcDbCircle
 10
-20.17595448734055
 20
328.7477245848287
 30
0.0
 40
0.5
100
AcDbArc
 50
14.34638766282238
 51
109.653612337178
  0
ARC
  5
27E3D
330
18
100
AcDbEntity
  8
細線
100
AcDbCircle
 10
-19.09661239416004
 20
328.7854160412676
 30
0.0
 40
0.5
100
AcDbArc
 50
74.34638766282701
 51
169.65361233718
  0
ARC
  5
27E3E
330
18
100
AcDbEntity
  8
細線
100
AcDbCircle
 10
-20.74826729271262
 20
329.6636165286776
 30
0.0
 40
0.5
100
AcDbArc
 50
314.3463876628146
 51
49.65361233717634
  0
ARC
  5
27E3F
330
18
100
AcDbEntity
  8
細線
100
AcDbCircle
 10
-19.16189591172303
 20
330.6548913854042
 30
0.0
 40
0.5
100
AcDbArc
 50
194.3463876628224
 51
289.6536123371781
  0
CIRCLE
  5
27E40
330
18
100
AcDbEntity
  8
細線
100
AcDbCircle
 10
-25.86760548182897
 20
265.3255518806375
 30
0.0
 40
3.5
  0
ARC
  5
27E41
330
18
100
AcDbEntity
  8
細線
100
AcDbCircle
 10
-26.91992515179705
 20
265.5684990193289
 30
0.0
 40
0.5
100
AcDbArc
 50
299.346387662827
 51
34.65361233718029
  0
CIRCLE
  5
27E42
330
18
100
AcDbEntity
  8
細線
100
AcDbCircle
 10
-25.86760548182897
 20
265.3255518806375
 30
0.0
 40
0.8299999999999998
  0
ARC
  5
27E43
330
18
100
AcDbEntity
  8
細線
100
AcDbCircle
 10
-25.13104725296155
 20
266.115413878386
 30
0.0
 40
0.5
100
AcDbArc
 50
179.3463876628146
 51
274.6536123371762
  0
ARC
  5
27E44
330
18
100
AcDbEntity
  8
細線
100
AcDbCircle
 10
-25.55184404072837
 20
264.2927427441973
 30
0.0
 40
0.5
100
AcDbArc
 50
59.34638766282244
 51
154.653612337178
  0
ARC
  5
27E45
330
18
100
AcDbEntity
  8
細線
100
AcDbCircle
 10
-24.81528581186103
 20
265.0826047419461
 30
0.0
 40
0.5
100
AcDbArc
 50
119.3463876628269
 51
214.65361233718
  0
ARC
  5
27E46
330
18
100
AcDbEntity
  8
細線
100
AcDbCircle
 10
-26.60416371069658
 20
264.5356898828886
 30
0.0
 40
0.5
100
AcDbArc
 50
359.3463876628147
 51
94.65361233717636
  0
ARC
  5
27E47
330
18
100
AcDbEntity
  8
細線
100
AcDbCircle
 10
-26.18336692292951
 20
266.3583610170777
 30
0.0
 40
0.5
100
AcDbArc
 50
239.3463876628224
 51
334.6536123371781
  0
CIRCLE
  5
27E48
330
18
100
AcDbEntity
  8
細線
100
AcDbCircle
 10
15.26979934163959
 20
215.4218893331294
 30
0.0
 40
3.5
  0
ARC
  5
27E49
330
18
100
AcDbEntity
  8
細線
100
AcDbCircle
 10
14.35390739779061
 20
214.8495765277576
 30
0.0
 40
0.5
100
AcDbArc
 50
344.346387662827
 51
79.65361233718031
  0
CIRCLE
  5
27E4A
330
18
100
AcDbEntity
  8
細線
100
AcDbCircle
 10
15.26979934163959
 20
215.4218893331294
 30
0.0
 40
0.8299999999999998
  0
ARC
  5
27E4B
330
18
100
AcDbEntity
  8
細線
100
AcDbCircle
 10
15.2321078852009
 20
216.5012314263099
 30
0.0
 40
0.5
100
AcDbArc
 50
224.3463876628146
 51
319.6536123371763
  0
ARC
  5
27E4C
330
18
100
AcDbEntity
  8
細線
100
AcDbCircle
 10
16.22338274192717
 20
214.9148600453208
 30
0.0
 40
0.5
100
AcDbArc
 50
104.3463876628224
 51
199.653612337178
  0
ARC
  5
27E4D
330
18
100
AcDbEntity
  8
細線
100
AcDbCircle
 10
16.18569128548839
 20
215.9942021385013
 30
0.0
 40
0.5
100
AcDbArc
 50
164.346387662827
 51
259.6536123371801
  0
ARC
  5
27E4E
330
18
100
AcDbEntity
  8
細線
100
AcDbCircle
 10
15.30749079807825
 20
214.3425472399485
 30
0.0
 40
0.5
100
AcDbArc
 50
44.34638766281466
 51
139.6536123371763
  0
ARC
  5
27E4F
330
18
100
AcDbEntity
  8
細線
100
AcDbCircle
 10
14.31621594135191
 20
215.9289186209383
 30
0.0
 40
0.5
100
AcDbArc
 50
284.3463876628224
 51
19.65361233717819
  0
CIRCLE
  5
27E50
330
18
100
AcDbEntity
  8
細線
100
AcDbCircle
 10
79.64555544611852
 20
209.2232090508324
 30
0.0
 40
3.5
  0
ARC
  5
27E51
330
18
100
AcDbEntity
  8
細線
100
AcDbCircle
 10
79.40260830742714
 20
208.1708893808641
 30
0.0
 40
0.5
100
AcDbArc
 50
29.34638766282695
 51
124.6536123371801
  0
CIRCLE
  5
27E52
330
18
100
AcDbEntity
  8
細線
100
AcDbCircle
 10
79.64555544611852
 20
209.2232090508324
 30
0.0
 40
0.8299999999999998
  0
ARC
  5
27E53
330
18
100
AcDbEntity
  8
細線
100
AcDbCircle
 10
78.85569344836992
 20
209.9597672796998
 30
0.0
 40
0.5
100
AcDbArc
 50
269.3463876628146
 51
4.653612337176271
  0
ARC
  5
27E54
330
18
100
AcDbEntity
  8
細線
100
AcDbCircle
 10
80.6783645825585
 20
209.5389704919329
 30
0.0
 40
0.5
100
AcDbArc
 50
149.3463876628223
 51
244.6536123371782
  0
ARC
  5
27E55
330
18
100
AcDbEntity
  8
細線
100
AcDbCircle
 10
79.88850258480986
 20
210.2755287208004
 30
0.0
 40
0.5
100
AcDbArc
 50
209.3463876628269
 51
304.6536123371801
  0
ARC
  5
27E56
330
18
100
AcDbEntity
  8
細線
100
AcDbCircle
 10
80.43541744386731
 20
208.4866508219648
 30
0.0
 40
0.5
100
AcDbArc
 50
89.34638766281464
 51
184.6536123371761
  0
ARC
  5
27E57
330
18
100
AcDbEntity
  8
細線
100
AcDbCircle
 10
78.61274630967837
 20
208.9074476097318
 30
0.0
 40
0.5
100
AcDbArc
 50
329.3463876628221
 51
64.65361233717811
  0
CIRCLE
  5
27E58
330
18
100
AcDbEntity
  8
細線
100
AcDbCircle
 10
129.5492179936265
 20
250.3606138743009
 30
0.0
 40
3.5
  0
ARC
  5
27E59
330
18
100
AcDbEntity
  8
細線
100
AcDbCircle
 10
130.1215307989984
 20
249.4447219304519
 30
0.0
 40
0.5
100
AcDbArc
 50
74.346387662827
 51
169.65361233718
  0
CIRCLE
  5
27E5A
330
18
100
AcDbEntity
  8
細線
100
AcDbCircle
 10
129.5492179936265
 20
250.3606138743009
 30
0.0
 40
0.8299999999999998
  0
ARC
  5
27E5B
330
18
100
AcDbEntity
  8
細線
100
AcDbCircle
 10
128.469875900446
 20
250.3229224178623
 30
0.0
 40
0.5
100
AcDbArc
 50
314.3463876628146
 51
49.65361233717631
  0
ARC
  5
27E5C
330
18
100
AcDbEntity
  8
細線
100
AcDbCircle
 10
130.056247281435
 20
251.3141972745886
 30
0.0
 40
0.5
100
AcDbArc
 50
194.3463876628223
 51
289.6536123371781
  0
ARC
  5
27E5D
330
18
100
AcDbEntity
  8
細線
100
AcDbCircle
 10
128.9769051882547
 20
251.2765058181496
 30
0.0
 40
0.5
100
AcDbArc
 50
254.3463876628269
 51
349.6536123371801
  0
ARC
  5
27E5E
330
18
100
AcDbEntity
  8
細線
100
AcDbCircle
 10
130.6285600868072
 20
250.3983053307397
 30
0.0
 40
0.5
100
AcDbArc
 50
134.3463876628146
 51
229.6536123371763
  0
ARC
  5
27E5F
330
18
100
AcDbEntity
  8
細線
100
AcDbCircle
 10
129.0421887058175
 20
249.4070304740133
 30
0.0
 40
0.5
100
AcDbArc
 50
14.34638766282238
 51
109.653612337178
  0
CIRCLE
  5
27E60
330
18
100
AcDbEntity
  8
細線
100
AcDbCircle
 10
135.7478982759237
 20
314.7363699787798
 30
0.0
 40
3.5
  0
ARC
  5
27E61
330
18
100
AcDbEntity
  8
細線
100
AcDbCircle
 10
136.8002179458918
 20
314.4934228400884
 30
0.0
 40
0.5
100
AcDbArc
 50
119.3463876628269
 51
214.65361233718
  0
CIRCLE
  5
27E62
330
18
100
AcDbEntity
  8
細線
100
AcDbCircle
 10
135.7478982759237
 20
314.7363699787798
 30
0.0
 40
0.8299999999999998
  0
ARC
  5
27E63
330
18
100
AcDbEntity
  8
細線
100
AcDbCircle
 10
135.0113400470561
 20
313.9465079810311
 30
0.0
 40
0.5
100
AcDbArc
 50
359.3463876628146
 51
94.65361233717628
  0
ARC
  5
27E64
330
18
100
AcDbEntity
  8
細線
100
AcDbCircle
 10
135.4321368348232
 20
315.7691791152198
 30
0.0
 40
0.5
100
AcDbArc
 50
239.3463876628223
 51
334.6536123371781
  0
ARC
  5
27E65
330
18
100
AcDbEntity
  8
細線
100
AcDbCircle
 10
134.6955786059558
 20
314.9793171174712
 30
0.0
 40
0.5
100
AcDbArc
 50
299.346387662827
 51
34.6536123371802
  0
ARC
  5
27E66
330
18
100
AcDbEntity
  8
細線
100
AcDbCircle
 10
136.4844565047914
 20
315.5262319765286
 30
0.0
 40
0.5
100
AcDbArc
 50
179.3463876628146
 51
274.6536123371762
  0
ARC
  5
27E67
330
18
100
AcDbEntity
  8
細線
100
AcDbCircle
 10
136.0636597170242
 20
313.7035608423397
 30
0.0
 40
0.5
100
AcDbArc
 50
59.34638766282233
 51
154.653612337178
  0
CIRCLE
  5
27E68
330
18
100
AcDbEntity
  8
細線
100
AcDbCircle
 10
94.61049345245514
 20
364.640032526288
 30
0.0
 40
3.5
  0
ARC
  5
27E69
330
18
100
AcDbEntity
  8
細線
100
AcDbCircle
 10
95.52638539630413
 20
365.2123453316598
 30
0.0
 40
0.5
100
AcDbArc
 50
164.3463876628269
 51
259.6536123371801
  0
CIRCLE
  5
27E6A
330
18
100
AcDbEntity
  8
細線
100
AcDbCircle
 10
94.61049345245514
 20
364.640032526288
 30
0.0
 40
0.8299999999999998
  0
ARC
  5
27E6B
330
18
100
AcDbEntity
  8
細線
100
AcDbCircle
 10
94.64818490889385
 20
363.5606904331075
 30
0.0
 40
0.5
100
AcDbArc
 50
44.34638766281463
 51
139.6536123371763
  0
ARC
  5
27E6C
330
18
100
AcDbEntity
  8
細線
100
AcDbCircle
 10
93.65691005216758
 20
365.1470618140965
 30
0.0
 40
0.5
100
AcDbArc
 50
284.3463876628221
 51
19.65361233717812
  0
ARC
  5
27E6D
330
18
100
AcDbEntity
  8
細線
100
AcDbCircle
 10
93.69460150860632
 20
364.0677197209162
 30
0.0
 40
0.5
100
AcDbArc
 50
344.3463876628268
 51
79.65361233718019
  0
ARC
  5
27E6E
330
18
100
AcDbEntity
  8
細線
100
AcDbCircle
 10
94.57280199601646
 20
365.7193746194688
 30
0.0
 40
0.5
100
AcDbArc
 50
224.3463876628146
 51
319.6536123371763
  0
ARC
  5
27E6F
330
18
100
AcDbEntity
  8
細線
100
AcDbCircle
 10
95.56407685274278
 20
364.1330032384791
 30
0.0
 40
0.5
100
AcDbArc
 50
104.3463876628223
 51
199.653612337178
  0
CIRCLE
  5
27E70
330
18
100
AcDbEntity
  8
中心線
100
AcDbCircle
 10
54.94014639704733
 20
290.0309609297078
 30
0.0
 40
20.5
  0
CIRCLE
  5
27E73
330
18
100
AcDbEntity
  8
細線
100
AcDbCircle
 10
43.81092745763861
 20
331.5657714601389
 30
0.0
 40
1.6
  0
CIRCLE
  5
27E74
330
18
100
AcDbEntity
  8
細線
100
AcDbCircle
 10
43.81092745763861
 20
331.5657714601389
 30
0.0
 40
2.0
  0
CIRCLE
  5
27E75
330
18
100
AcDbEntity
  8
細線
100
AcDbCircle
 10
24.53455480602492
 20
320.4365525207303
 30
0.0
 40
1.6
  0
CIRCLE
  5
27E76
330
18
100
AcDbEntity
  8
細線
100
AcDbCircle
 10
24.53455480602492
 20
320.4365525207303
 30
0.0
 40
2.0
  0
CIRCLE
  5
27E77
330
18
100
AcDbEntity
  8
細線
100
AcDbCircle
 10
13.40533586661622
 20
301.1601798691166
 30
0.0
 40
1.6
  0
CIRCLE
  5
27E78
330
18
100
AcDbEntity
  8
細線
100
AcDbCircle
 10
13.40533586661622
 20
301.1601798691166
 30
0.0
 40
2.0
  0
CIRCLE
  5
27E79
330
18
100
AcDbEntity
  8
細線
100
AcDbCircle
 10
13.40533586661621
 20
278.9017419902991
 30
0.0
 40
1.6
  0
CIRCLE
  5
27E7A
330
18
100
AcDbEntity
  8
細線
100
AcDbCircle
 10
13.40533586661621
 20
278.9017419902991
 30
0.0
 40
2.0
  0
CIRCLE
  5
27E7B
330
18
100
AcDbEntity
  8
細線
100
AcDbCircle
 10
24.53455480602494
 20
259.6253693386855
 30
0.0
 40
1.6
  0
CIRCLE
  5
27E7C
330
18
100
AcDbEntity
  8
細線
100
AcDbCircle
 10
24.53455480602494
 20
259.6253693386855
 30
0.0
 40
2.0
  0
CIRCLE
  5
27E81
330
18
100
AcDbEntity
  8
細線
100
AcDbCircle
 10
85.34573798806979
 20
259.6253693386854
 30
0.0
 40
1.6
  0
CIRCLE
  5
27E82
330
18
100
AcDbEntity
  8
細線
100
AcDbCircle
 10
85.34573798806979
 20
259.6253693386854
 30
0.0
 40
2.0
  0
CIRCLE
  5
27E83
330
18
100
AcDbEntity
  8
細線
100
AcDbCircle
 10
96.47495692747845
 20
278.9017419902991
 30
0.0
 40
1.6
  0
CIRCLE
  5
27E84
330
18
100
AcDbEntity
  8
細線
100
AcDbCircle
 10
96.47495692747845
 20
278.9017419902991
 30
0.0
 40
2.0
  0
CIRCLE
  5
27E85
330
18
100
AcDbEntity
  8
細線
100
AcDbCircle
 10
96.47495692747845
 20
301.1601798691166
 30
0.0
 40
1.6
  0
CIRCLE
  5
27E86
330
18
100
AcDbEntity
  8
細線
100
AcDbCircle
 10
96.47495692747845
 20
301.1601798691166
 30
0.0
 40
2.0
  0
CIRCLE
  5
27E87
330
18
100
AcDbEntity
  8
細線
100
AcDbCircle
 10
85.34573798806972
 20
320.4365525207303
 30
0.0
 40
1.6
  0
CIRCLE
  5
27E88
330
18
100
AcDbEntity
  8
細線
100
AcDbCircle
 10
85.34573798806972
 20
320.4365525207303
 30
0.0
 40
2.0
  0
LINE
  5
27E9E
330
18
100
AcDbEntity
  8
0
100
AcDbLine
 10
187.7369104394091
 20
226.0397875712575
 30
0.0
 11
187.7369104394091
 21
227.5588249747102
 31
0.0
  0
LINE
  5
27E9F
330
18
100
AcDbEntity
  8
0
100
AcDbLine
 10
183.2369104394091
 20
226.8023895011376
 30
0.0
 11
183.2369104394091
 21
237.259532358282
 31
0.0
  0
LINE
  5
27EA0
330
18
100
AcDbEntity
  8
0
100
AcDbLine
 10
193.736910439409
 20
221.5309609297098
 30
0.0
 11
193.7369104394091
 21
242.5309609297098
 31
0.0
  0
LINE
  5
27EA1
330
18
100
AcDbEntity
  8
0
100
AcDbLine
 10
196.7369104394091
 20
222.5309609297098
 30
0.0
 11
196.7369104394091
 21
241.53096092971
 31
0.0
  0
LINE
  5
27EA2
330
18
100
AcDbEntity
  8
0
100
AcDbLine
 10
186.7369104394093
 20
222.7023895011388
 30
0.0
 11
186.7369104394091
 21
241.3595323582814
 31
0.0
  0
LINE
  5
27EA3
330
18
100
AcDbEntity
  8
0
100
AcDbLine
 10
201.7369104394087
 20
242.5309609297098
 30
0.0
 11
201.7369104394086
 21
221.5309609297098
 31
0.0
  0
LINE
  5
27EA4
330
18
100
AcDbEntity
  8
0
100
AcDbLine
 10
198.7369104394089
 20
221.5309609297098
 30
0.0
 11
198.7369104394091
 21
242.5309609297098
 31
0.0
  0
LINE
  5
27EA5
330
18
100
AcDbEntity
  8
0
100
AcDbLine
 10
187.7369104394091
 20
238.0221342881618
 30
0.0
 11
193.7369104394091
 21
238.0221342881618
 31
0.0
  0
LINE
  5
27EA6
330
18
100
AcDbEntity
  8
0
100
AcDbLine
 10
187.7369104394091
 20
236.5030968847095
 30
0.0
 11
193.7369104394091
 21
236.5030968847095
 31
0.0
  0
LINE
  5
27EA7
330
18
100
AcDbEntity
  8
0
100
AcDbLine
 10
193.7369104394091
 20
227.5588249747102
 30
0.0
 11
187.7369104394091
 21
227.5588249747102
 31
0.0
  0
LINE
  5
27EA8
330
18
100
AcDbEntity
  8
0
100
AcDbLine
 10
193.7369104394091
 20
242.5309609297098
 30
0.0
 11
187.7369104394093
 21
242.5309609297098
 31
0.0
  0
LINE
  5
27EA9
330
18
100
AcDbEntity
  8
0
100
AcDbLine
 10
183.2369104394091
 20
234.5309609264103
 30
0.0
 11
173.180434787051
 21
234.5309609264103
 31
0.0
  0
LINE
  5
27EAA
330
18
100
AcDbEntity
  8
0
100
AcDbLine
 10
183.2369104394091
 20
229.5309609330104
 30
0.0
 11
173.1804347870514
 21
229.5309609330104
 31
0.0
  0
ARC
  5
27EAB
330
18
100
AcDbEntity
  8
0
100
AcDbCircle
 10
171.7753122336578
 20
233.2809609280597
 30
0.0
 40
1.880656636903949
100
AcDbArc
 50
318.3436407292578
 51
41.65635927074186
  0
ARC
  5
27EAC
330
18
100
AcDbEntity
  8
0
100
AcDbCircle
 10
174.5855573404454
 20
233.2809609280597
 30
0.0
 40
1.880656636903949
100
AcDbArc
 50
138.3436407292576
 51
221.6563592707418
  0
ARC
  5
27EAD
330
18
100
AcDbEntity
  8
0
100
AcDbCircle
 10
174.5855573404446
 20
230.7809609313598
 30
0.0
 40
1.880656636903949
100
AcDbArc
 50
138.3436407292576
 51
221.6563592707418
  0
ARC
  5
27EAE
330
18
100
AcDbEntity
  8
0
100
AcDbCircle
 10
197.2369104394094
 20
232.0309609297098
 30
0.0
 40
10.50000000000042
100
AcDbArc
 50
154.7912347032445
 51
205.2087652967578
  0
LINE
  5
27EAF
330
18
100
AcDbEntity
  8
0
100
AcDbLine
 10
187.7369104394093
 20
242.5309609297098
 30
0.0
 11
183.2369104394091
 21
237.259532358282
 31
0.0
  0
LINE
  5
27EB0
330
18
100
AcDbEntity
  8
0
100
AcDbLine
 10
187.7369104394091
 20
236.5030968847095
 30
0.0
 11
187.7369104394091
 21
238.0221342881618
 31
0.0
  0
ARC
  5
27EB1
330
18
100
AcDbEntity
  8
0
100
AcDbCircle
 10
195.7107069569789
 20
242.2298761162998
 30
0.0
 40
9.015903847971632
100
AcDbArc
 50
185.539633318506
 51
207.8204388558356
  0
LINE
  5
27EB2
330
18
100
AcDbEntity
  8
0
100
AcDbLine
 10
198.7369104394091
 20
238.0221342881618
 30
0.0
 11
201.7369104394087
 21
238.0221342881618
 31
0.0
  0
LINE
  5
27EB3
330
18
100
AcDbEntity
  8
0
100
AcDbLine
 10
198.7369104394091
 20
236.5030968847095
 30
0.0
 11
201.7369104394087
 21
236.5030968847095
 31
0.0
  0
LINE
  5
27EB4
330
18
100
AcDbEntity
  8
0
100
AcDbLine
 10
201.7369104394087
 20
242.5309609297098
 30
0.0
 11
198.7369104394091
 21
242.5309609297098
 31
0.0
  0
LINE
  5
27EB5
330
18
100
AcDbEntity
  8
0
100
AcDbLine
 10
198.7369104394091
 20
239.4309609297105
 30
0.0
 11
196.7369104394091
 21
239.4309609297105
 31
0.0
  0
LINE
  5
27EB6
330
18
100
AcDbEntity
  8
0
100
AcDbLine
 10
196.7369104394091
 20
241.53096092971
 30
0.0
 11
193.7369104394091
 21
241.53096092971
 31
0.0
  0
LINE
  5
27EB7
330
18
100
AcDbEntity
  8
0
100
AcDbLine
 10
202.7369104394091
 20
241.0309609297097
 30
0.0
 11
201.7369104394084
 21
241.0309609297097
 31
0.0
  0
LINE
  5
27EB8
330
18
100
AcDbEntity
  8
0
100
AcDbLine
 10
201.7369104394086
 20
227.5588249747102
 30
0.0
 11
198.7369104394091
 21
227.5588249747102
 31
0.0
  0
LINE
  5
27EB9
330
18
100
AcDbEntity
  8
0
100
AcDbLine
 10
193.736910439409
 20
221.5309609297103
 30
0.0
 11
187.7369104394091
 21
221.5309609297103
 31
0.0
  0
LINE
  5
27EBA
330
18
100
AcDbEntity
  8
0
100
AcDbLine
 10
193.7369104394091
 20
226.0397875712575
 30
0.0
 11
187.7369104394091
 21
226.0397875712575
 31
0.0
  0
LINE
  5
27EBB
330
18
100
AcDbEntity
  8
0
100
AcDbLine
 10
193.736910439409
 20
221.5309609297098
 30
0.0
 11
187.7369104394091
 21
221.5309609297098
 31
0.0
  0
LINE
  5
27EBC
330
18
100
AcDbEntity
  8
0
100
AcDbLine
 10
187.7369104394094
 20
221.5309609297098
 30
0.0
 11
183.2369104394091
 21
226.8023895011378
 31
0.0
  0
ARC
  5
27EBD
330
18
100
AcDbEntity
  8
0
100
AcDbCircle
 10
195.7107069569788
 20
221.83204574312
 30
0.0
 40
9.015903847971632
100
AcDbArc
 50
152.179561144164
 51
174.4603666814936
  0
LINE
  5
27EBE
330
18
100
AcDbEntity
  8
0
100
AcDbLine
 10
201.7369104394086
 20
226.0397875712575
 30
0.0
 11
198.7369104394091
 21
226.0397875712575
 31
0.0
  0
LINE
  5
27EBF
330
18
100
AcDbEntity
  8
0
100
AcDbLine
 10
201.7369104394086
 20
221.5309609297098
 30
0.0
 11
198.7369104394089
 21
221.5309609297098
 31
0.0
  0
LINE
  5
27EC0
330
18
100
AcDbEntity
  8
0
100
AcDbLine
 10
198.7369104394091
 20
224.6309609297103
 30
0.0
 11
196.7369104394091
 21
224.6309609297103
 31
0.0
  0
LINE
  5
27EC1
330
18
100
AcDbEntity
  8
0
100
AcDbLine
 10
196.7369104394091
 20
222.5309609297098
 30
0.0
 11
193.7369104394091
 21
222.5309609297098
 31
0.0
  0
LINE
  5
27EC2
330
18
100
AcDbEntity
  8
0
100
AcDbLine
 10
202.7369104394091
 20
223.0309609297098
 30
0.0
 11
201.7369104394086
 21
223.0309609297099
 31
0.0
  0
LINE
  5
27EF5
330
18
100
AcDbEntity
  8
0
100
AcDbLine
 10
143.1901463970465
 20
-6.433721973934557
 30
0.0
 11
141.440146397047
 21
-6.433721973934552
 31
0.0
  0
LINE
  5
27EF8
330
18
100
AcDbEntity
  8
0
100
AcDbLine
 10
38.76145670968139
 20
-6.43372197393478
 30
0.0
 11
71.11883608440826
 21
-6.433721973934781
 31
0.0
  0
LINE
  5
27EF9
330
18
100
AcDbEntity
  8
0
100
AcDbLine
 10
143.8401463970473
 20
-0.1337219739351198
 30
0.0
 11
-33.95985360295266
 21
-0.133721973934545
 31
0.0
  0
LINE
  5
27F05
330
18
100
AcDbEntity
  8
中心線
 48
0.8
100
AcDbLine
 10
-57.7119519509274
 20
240.0309609297091
 30
0.0
 11
-27.52663735232954
 21
240.0309609297091
 31
0.0
  0
CIRCLE
  5
27F26
330
18
100
AcDbEntity
  8
0
100
AcDbCircle
 10
-17.53829867457216
 20
362.5094060013318
 30
0.0
 40
6.0
  0
CIRCLE
  5
27F27
330
18
100
AcDbEntity
  8
0
100
AcDbCircle
 10
127.4185914686668
 20
362.5094060013318
 30
0.0
 40
6.0
  0
CIRCLE
  5
27F28
330
18
100
AcDbEntity
  8
0
100
AcDbCircle
 10
-17.53829867457216
 20
217.5525158580863
 30
0.0
 40
6.0
  0
CIRCLE
  5
27F29
330
18
100
AcDbEntity
  8
0
100
AcDbCircle
 10
127.4185914686668
 20
217.5525158580863
 30
0.0
 40
6.0
  0
CIRCLE
  5
27F2A
330
18
100
AcDbEntity
  8
0
100
AcDbCircle
 10
216.7584653677896
 20
362.5094060013334
 30
0.0
 40
6.0
  0
CIRCLE
  5
27F2B
330
18
100
AcDbEntity
  8
0
100
AcDbCircle
 10
361.7153555110287
 20
362.5094060013334
 30
0.0
 40
6.0
  0
CIRCLE
  5
27F2C
330
18
100
AcDbEntity
  8
0
100
AcDbCircle
 10
361.7153555110287
 20
217.5525158580879
 30
0.0
 40
6.0
  0
CIRCLE
  5
27F2D
330
18
100
AcDbEntity
  8
0
100
AcDbCircle
 10
216.7584653677896
 20
217.5525158580879
 30
0.0
 40
6.0
  0
CIRCLE
  5
27F8B
330
18
100
AcDbEntity
  8
２点鎖線
 48
0.5
100
AcDbCircle
 10
44.94014639704622
 20
71.06627802606624
 30
0.0
 40
4.25
  0
CIRCLE
  5
27F8C
330
18
100
AcDbEntity
  8
２点鎖線
 48
0.5
100
AcDbCircle
 10
54.91622373304291
 20
94.23627438459243
 30
0.0
 40
10.0
  0
LINE
  5
27F8D
330
18
100
AcDbEntity
  8
２点鎖線
 48
0.5
100
AcDbLine
 10
71.91622373296323
 20
64.06627802606577
 30
0.0
 11
37.91622373296299
 21
64.06627802606577
 31
0.0
  0
LINE
  5
27F8E
330
18
100
AcDbEntity
  8
CENTER
 48
0.5
100
AcDbLine
 10
70.89593309968418
 20
71.06627802606624
 30
0.0
 11
38.10216142644289
 21
71.06627802606624
 31
0.0
  0
LINE
  5
27F8F
330
18
100
AcDbEntity
  8
CENTER
100
AcDbLine
 10
79.03467706931772
 20
94.23627438459265
 30
0.0
 11
30.95226064582314
 21
94.23627438459265
 31
0.0
  0
LINE
  5
27F90
330
18
100
AcDbEntity
  8
仮想線
 48
0.5
100
AcDbLine
 10
44.91622373296311
 20
114.2362743845928
 30
0.0
 11
64.91622373296312
 21
114.2362743845928
 31
0.0
  0
LINE
  5
27F91
330
18
100
AcDbEntity
  8
２点鎖線
 48
0.5
100
AcDbLine
 10
44.91622373296311
 20
114.2362743845928
 30
0.0
 11
34.91622373296312
 21
104.2362743845927
 31
0.0
  0
LINE
  5
27F92
330
18
100
AcDbEntity
  8
２点鎖線
 48
0.5
100
AcDbLine
 10
34.916223732963
 20
67.06627802606579
 30
0.0
 11
34.91622373296312
 21
104.2362743845927
 31
0.0
  0
LINE
  5
27F93
330
18
100
AcDbEntity
  8
中心線
 48
0.5
100
AcDbLine
 10
44.94014639704622
 20
77.14676322716605
 30
0.0
 11
44.94014639704622
 21
65.11865002810544
 31
0.0
  0
LINE
  5
27F94
330
18
100
AcDbEntity
  8
２点鎖線
 48
0.5
100
AcDbLine
 10
37.91622373296299
 20
64.06627802606577
 30
0.0
 11
34.916223732963
 21
67.06627802606579
 31
0.0
  0
LINE
  5
27F95
330
18
100
AcDbEntity
  8
仮想線
 48
0.5
100
AcDbLine
 10
74.91622373296312
 20
104.2362743845927
 30
0.0
 11
64.91622373296312
 21
114.2362743845928
 31
0.0
  0
LINE
  5
27F96
330
18
100
AcDbEntity
  8
２点鎖線
 48
0.5
100
AcDbLine
 10
74.91622373296312
 20
104.2362743845927
 30
0.0
 11
74.91622373296323
 21
67.06627802606579
 31
0.0
  0
CIRCLE
  5
27F97
330
18
100
AcDbEntity
  8
２点鎖線
 48
0.5
100
AcDbCircle
 10
64.94014639704622
 20
71.06627802606624
 30
0.0
 40
4.25
  0
LINE
  5
27F98
330
18
100
AcDbEntity
  8
中心線
 48
0.5
100
AcDbLine
 10
64.94014639704622
 20
77.14676322716605
 30
0.0
 11
64.94014639704622
 21
65.11865002810544
 31
0.0
  0
LINE
  5
27F99
330
18
100
AcDbEntity
  8
２点鎖線
 48
0.5
100
AcDbLine
 10
71.91622373296323
 20
64.06627802606577
 30
0.0
 11
74.91622373296323
 21
67.06627802606579
 31
0.0
  0
LINE
  5
27FBE
330
18
100
AcDbEntity
  8
仮想線
 48
0.5
100
AcDbLine
 10
45.01953601232822
 20
384.430955663962
 30
0.0
 11
50.01953601232822
 21
384.430955663961
 31
0.0
  0
LINE
  5
27FBF
330
18
100
AcDbEntity
  8
仮想線
 48
0.5
100
AcDbLine
 10
40.41953601232831
 20
385.730955663961
 30
0.0
 11
49.61953601232813
 21
385.730955663961
 31
0.0
  0
LINE
  5
27FC0
330
18
100
AcDbEntity
  8
仮想線
 48
0.5
100
AcDbLine
 10
40.99014639704797
 20
390.730955663961
 30
0.0
 11
48.89014639704761
 21
390.730955663961
 31
0.0
  0
LINE
  5
27FC1
330
18
100
AcDbEntity
  8
仮想線
 48
0.5
100
AcDbLine
 10
34.94014639704733
 20
378.9309503982122
 30
0.0
 11
34.9401463970471
 21
383.4309503982128
 31
0.0
  0
LINE
  5
27FC2
330
18
100
AcDbEntity
  8
中心線
 48
0.5
100
AcDbLine
 10
45.01953601232844
 20
368.3979563456645
 30
0.0
 11
45.01953601232822
 21
393.4888193878365
 31
0.0
  0
LINE
  5
27FC3
330
18
100
AcDbEntity
  8
仮想線
 48
0.5
100
AcDbLine
 10
40.01953601232845
 20
383.430955663961
 30
0.0
 11
40.01953601232822
 21
384.430955663961
 31
0.0
  0
LINE
  5
27FC4
330
18
100
AcDbEntity
  8
仮想線
 48
0.5
100
AcDbLine
 10
40.41953601232831
 20
384.4309556639614
 30
0.0
 11
40.41953601232831
 21
385.730955663961
 31
0.0
  0
LINE
  5
27FC5
330
18
100
AcDbEntity
  8
仮想線
 48
0.5
100
AcDbLine
 10
40.69014639704778
 20
385.730955663961
 30
0.0
 11
40.69014639704778
 21
390.430955663961
 31
0.0
  0
LINE
  5
27FC6
330
18
100
AcDbEntity
  8
仮想線
 48
0.5
100
AcDbLine
 10
40.99014639704797
 20
390.730955663961
 30
0.0
 11
40.69014639704778
 21
390.430955663961
 31
0.0
  0
LINE
  5
27FC7
330
18
100
AcDbEntity
  8
仮想線
 48
0.5
100
AcDbLine
 10
40.01953601232822
 20
384.430955663961
 30
0.0
 11
45.01953601232822
 21
384.430955663962
 31
0.0
  0
LINE
  5
27FC8
330
18
100
AcDbEntity
  8
仮想線
 48
0.5
100
AcDbLine
 10
50.01953601232822
 20
383.430955663961
 30
0.0
 11
50.01953601232822
 21
384.430955663961
 31
0.0
  0
LINE
  5
27FC9
330
18
100
AcDbEntity
  8
仮想線
 48
0.5
100
AcDbLine
 10
49.61953601232813
 20
384.4309556639614
 30
0.0
 11
49.61953601232813
 21
385.730955663961
 31
0.0
  0
LINE
  5
27FCA
330
18
100
AcDbEntity
  8
仮想線
 48
0.5
100
AcDbLine
 10
49.19014639704777
 20
390.4309556639614
 30
0.0
 11
48.89014639704761
 21
390.730955663961
 31
0.0
  0
LINE
  5
27FCB
330
18
100
AcDbEntity
  8
仮想線
 48
0.5
100
AcDbLine
 10
49.19014639704777
 20
385.730955663961
 30
0.0
 11
49.19014639704777
 21
390.4309556639614
 31
0.0
  0
LINE
  5
27FCC
330
18
100
AcDbEntity
  8
仮想線
 48
0.5
100
AcDbLine
 10
34.9401463970471
 20
383.4309503982128
 30
0.0
 11
74.94014639704778
 21
383.4309714612068
 31
0.0
  0
LINE
  5
27FCD
330
18
100
AcDbEntity
  8
仮想線
  6
BYBLOCK
 48
0.5
100
AcDbLine
 10
74.94014639704778
 20
383.4309714612068
 30
0.0
 11
74.94014639704733
 21
378.9309714612063
 31
0.0
  0
LINE
  5
27FCE
330
18
100
AcDbEntity
  8
仮想線
 48
0.5
100
AcDbLine
 10
65.01953601232822
 20
384.430955663962
 30
0.0
 11
60.01953601232798
 21
384.430955663961
 31
0.0
  0
LINE
  5
27FCF
330
18
100
AcDbEntity
  8
仮想線
 48
0.5
100
AcDbLine
 10
69.6195360123279
 20
385.730955663961
 30
0.0
 11
60.41953601232808
 21
385.730955663961
 31
0.0
  0
LINE
  5
27FD0
330
18
100
AcDbEntity
  8
中心線
 48
0.5
100
AcDbLine
 10
65.01953601232798
 20
368.3979563456645
 30
0.0
 11
65.01953601232798
 21
393.4888193878365
 31
0.0
  0
LINE
  5
27FD1
330
18
100
AcDbEntity
  8
仮想線
 48
0.5
100
AcDbLine
 10
60.84892562760842
 20
385.730955663961
 30
0.0
 11
60.84892562760843
 21
390.4309556639614
 31
0.0
  0
LINE
  5
27FD2
330
18
100
AcDbEntity
  8
仮想線
 48
0.5
100
AcDbLine
 10
69.34892562760842
 20
385.730955663961
 30
0.0
 11
69.34892562760842
 21
390.430955663961
 31
0.0
  0
LINE
  5
27FD3
330
18
100
AcDbEntity
  8
仮想線
 48
0.5
100
AcDbLine
 10
60.84892562760843
 20
390.4309556639614
 30
0.0
 11
61.14892562760861
 21
390.730955663961
 31
0.0
  0
LINE
  5
27FD4
330
18
100
AcDbEntity
  8
仮想線
 48
0.5
100
AcDbLine
 10
69.04892562760824
 20
390.730955663961
 30
0.0
 11
69.34892562760842
 21
390.430955663961
 31
0.0
  0
LINE
  5
27FD5
330
18
100
AcDbEntity
  8
仮想線
 48
0.5
100
AcDbLine
 10
69.04892562760824
 20
390.730955663961
 30
0.0
 11
61.14892562760861
 21
390.730955663961
 31
0.0
  0
LINE
  5
27FD6
330
18
100
AcDbEntity
  8
仮想線
 48
0.5
100
AcDbLine
 10
70.01953601232798
 20
384.430955663961
 30
0.0
 11
65.01953601232822
 21
384.4309556639618
 31
0.0
  0
LINE
  5
27FD7
330
18
100
AcDbEntity
  8
仮想線
 48
0.5
100
AcDbLine
 10
69.6195360123279
 20
384.4309556639614
 30
0.0
 11
69.6195360123279
 21
385.730955663961
 31
0.0
  0
LINE
  5
27FD8
330
18
100
AcDbEntity
  8
仮想線
 48
0.5
100
AcDbLine
 10
70.01953601232776
 20
383.430955663961
 30
0.0
 11
70.01953601232798
 21
384.430955663961
 31
0.0
  0
LINE
  5
27FD9
330
18
100
AcDbEntity
  8
仮想線
 48
0.5
100
AcDbLine
 10
60.41953601232808
 20
384.4309556639614
 30
0.0
 11
60.41953601232808
 21
385.730955663961
 31
0.0
  0
LINE
  5
27FDA
330
18
100
AcDbEntity
  8
仮想線
 48
0.5
100
AcDbLine
 10
60.01953601232798
 20
383.430955663961
 30
0.0
 11
60.01953601232798
 21
384.430955663961
 31
0.0
  0
LINE
  5
27FDB
330
18
100
AcDbEntity
  8
仮想線
  6
BYBLOCK
 48
0.5
100
AcDbLine
 10
34.94014639704733
 20
378.9309503982122
 30
0.0
 11
74.94014639704733
 21
378.9309714612063
 31
0.0
  0
LINE
  5
27FDC
330
18
100
AcDbEntity
  8
仮想線
 48
0.5
100
AcDbLine
 10
40.41953601232831
 20
195.6309661954568
 30
0.0
 11
40.41953601232831
 21
194.330966195457
 31
0.0
  0
LINE
  5
27FDD
330
18
100
AcDbEntity
  8
中心線
 48
0.5
100
AcDbLine
 10
45.01953601232844
 20
211.6639655137538
 30
0.0
 11
45.01953601232822
 21
186.5731024715816
 31
0.0
  0
LINE
  5
27FDE
330
18
100
AcDbEntity
  8
仮想線
 48
0.5
100
AcDbLine
 10
40.01953601232822
 20
195.6309661954573
 30
0.0
 11
45.01953601232822
 21
195.6309661954562
 31
0.0
  0
LINE
  5
27FDF
330
18
100
AcDbEntity
  8
仮想線
 48
0.5
100
AcDbLine
 10
40.01953601232845
 20
196.6309661954572
 30
0.0
 11
40.01953601232822
 21
195.6309661954573
 31
0.0
  0
LINE
  5
27FE0
330
18
100
AcDbEntity
  8
仮想線
 48
0.5
100
AcDbLine
 10
34.94014639704733
 20
201.130971461206
 30
0.0
 11
34.9401463970471
 21
196.6309714612053
 31
0.0
  0
LINE
  5
27FE1
330
18
100
AcDbEntity
  8
仮想線
 48
0.5
100
AcDbLine
 10
40.99014639704797
 20
189.3309661954569
 30
0.0
 11
40.69014639704778
 21
189.6309661954573
 31
0.0
  0
LINE
  5
27FE2
330
18
100
AcDbEntity
  8
仮想線
 48
0.5
100
AcDbLine
 10
40.69014639704778
 20
194.330966195457
 30
0.0
 11
40.69014639704778
 21
189.6309661954573
 31
0.0
  0
LINE
  5
27FE3
330
18
100
AcDbEntity
  8
仮想線
 48
0.5
100
AcDbLine
 10
69.6195360123279
 20
195.6309661954568
 30
0.0
 11
69.6195360123279
 21
194.330966195457
 31
0.0
  0
LINE
  5
27FE4
330
18
100
AcDbEntity
  8
仮想線
 48
0.5
100
AcDbLine
 10
60.41953601232808
 20
195.6309661954568
 30
0.0
 11
60.41953601232808
 21
194.330966195457
 31
0.0
  0
LINE
  5
27FE5
330
18
100
AcDbEntity
  8
仮想線
 48
0.5
100
AcDbLine
 10
65.01953601232822
 20
195.6309661954562
 30
0.0
 11
60.01953601232798
 21
195.6309661954573
 31
0.0
  0
LINE
  5
27FE6
330
18
100
AcDbEntity
  8
仮想線
 48
0.5
100
AcDbLine
 10
60.01953601232798
 20
196.6309661954572
 30
0.0
 11
60.01953601232798
 21
195.6309661954573
 31
0.0
  0
LINE
  5
27FE7
330
18
100
AcDbEntity
  8
仮想線
 48
0.5
100
AcDbLine
 10
70.01953601232798
 20
195.6309661954573
 30
0.0
 11
65.01953601232822
 21
195.6309661954563
 31
0.0
  0
LINE
  5
27FE8
330
18
100
AcDbEntity
  8
仮想線
 48
0.5
100
AcDbLine
 10
70.01953601232776
 20
196.6309661954572
 30
0.0
 11
70.01953601232798
 21
195.6309661954573
 31
0.0
  0
LINE
  5
27FE9
330
18
100
AcDbEntity
  8
仮想線
 48
0.5
100
AcDbLine
 10
69.6195360123279
 20
194.330966195457
 30
0.0
 11
60.41953601232808
 21
194.330966195457
 31
0.0
  0
LINE
  5
27FEA
330
18
100
AcDbEntity
  8
仮想線
 48
0.5
100
AcDbLine
 10
69.04892562760824
 20
189.3309661954569
 30
0.0
 11
61.14892562760861
 21
189.3309661954569
 31
0.0
  0
LINE
  5
27FEB
330
18
100
AcDbEntity
  8
仮想線
 48
0.5
100
AcDbLine
 10
60.84892562760842
 20
194.330966195457
 30
0.0
 11
60.84892562760843
 21
189.6309661954568
 31
0.0
  0
LINE
  5
27FEC
330
18
100
AcDbEntity
  8
仮想線
 48
0.5
100
AcDbLine
 10
60.84892562760843
 20
189.6309661954568
 30
0.0
 11
61.14892562760861
 21
189.3309661954569
 31
0.0
  0
LINE
  5
27FED
330
18
100
AcDbEntity
  8
仮想線
 48
0.5
100
AcDbLine
 10
69.34892562760842
 20
194.330966195457
 30
0.0
 11
69.34892562760842
 21
189.6309661954573
 31
0.0
  0
LINE
  5
27FEE
330
18
100
AcDbEntity
  8
仮想線
 48
0.5
100
AcDbLine
 10
69.04892562760824
 20
189.3309661954569
 30
0.0
 11
69.34892562760842
 21
189.6309661954573
 31
0.0
  0
LINE
  5
27FEF
330
18
100
AcDbEntity
  8
中心線
 48
0.5
100
AcDbLine
 10
65.01953601232798
 20
211.6639655137538
 30
0.0
 11
65.01953601232798
 21
186.5731024715816
 31
0.0
  0
LINE
  5
27FF0
330
18
100
AcDbEntity
  8
仮想線
  6
BYBLOCK
 48
0.5
100
AcDbLine
 10
74.94014639704778
 20
196.6309503982115
 30
0.0
 11
74.94014639704733
 21
201.130950398212
 31
0.0
  0
LINE
  5
27FF1
330
18
100
AcDbEntity
  8
仮想線
 48
0.5
100
AcDbLine
 10
34.9401463970471
 20
196.6309714612053
 30
0.0
 11
74.94014639704778
 21
196.6309503982115
 31
0.0
  0
LINE
  5
27FF2
330
18
100
AcDbEntity
  8
仮想線
  6
BYBLOCK
 48
0.5
100
AcDbLine
 10
34.94014639704733
 20
201.130971461206
 30
0.0
 11
74.94014639704733
 21
201.130950398212
 31
0.0
  0
LINE
  5
27FF3
330
18
100
AcDbEntity
  8
仮想線
 48
0.5
100
AcDbLine
 10
45.01953601232822
 20
195.6309661954562
 30
0.0
 11
50.01953601232822
 21
195.6309661954573
 31
0.0
  0
LINE
  5
27FF4
330
18
100
AcDbEntity
  8
仮想線
 48
0.5
100
AcDbLine
 10
40.41953601232831
 20
194.330966195457
 30
0.0
 11
49.61953601232813
 21
194.330966195457
 31
0.0
  0
LINE
  5
27FF5
330
18
100
AcDbEntity
  8
仮想線
 48
0.5
100
AcDbLine
 10
40.99014639704797
 20
189.3309661954569
 30
0.0
 11
48.89014639704761
 21
189.3309661954569
 31
0.0
  0
LINE
  5
27FF6
330
18
100
AcDbEntity
  8
仮想線
 48
0.5
100
AcDbLine
 10
49.61953601232813
 20
195.6309661954568
 30
0.0
 11
49.61953601232813
 21
194.330966195457
 31
0.0
  0
LINE
  5
27FF7
330
18
100
AcDbEntity
  8
仮想線
 48
0.5
100
AcDbLine
 10
50.01953601232822
 20
196.6309661954572
 30
0.0
 11
50.01953601232822
 21
195.6309661954573
 31
0.0
  0
LINE
  5
27FF8
330
18
100
AcDbEntity
  8
仮想線
 48
0.5
100
AcDbLine
 10
49.19014639704777
 20
189.6309661954568
 30
0.0
 11
48.89014639704761
 21
189.3309661954569
 31
0.0
  0
LINE
  5
27FF9
330
18
100
AcDbEntity
  8
仮想線
 48
0.5
100
AcDbLine
 10
49.19014639704777
 20
194.330966195457
 30
0.0
 11
49.19014639704777
 21
189.6309661954568
 31
0.0
  0
LINE
  5
28204
330
18
100
AcDbEntity
  8
0
100
AcDbLine
 10
-37.55985360295289
 20
-20.9337219739345
 30
0.0
 11
-40.5598536029529
 21
-20.9337219739345
 31
0.0
  0
LINE
  5
28205
330
18
100
AcDbEntity
  8
0
100
AcDbLine
 10
-37.55985360295289
 20
-1.933721973934567
 30
0.0
 11
-40.5598536029529
 21
-1.933721973934567
 31
0.0
  0
LINE
  5
28206
330
18
100
AcDbEntity
  8
0
100
AcDbLine
 10
-47.5598536029529
 20
-19.76229340250599
 30
0.0
 11
-47.5598536029529
 21
-11.43372197393456
 31
0.0
  0
ARC
  5
28207
330
18
100
AcDbEntity
  8
0
100
AcDbCircle
 10
-39.73359374670167
 20
-16.18372197393433
 30
0.0
 40
7.848428098993441
100
AcDbArc
 50
150.4309251395764
 51
209.5690748604233
  0
LINE
  5
28208
330
18
100
AcDbEntity
  8
0
100
AcDbLine
 10
-40.5598536029529
 20
-1.933721973934567
 30
0.0
 11
-40.5598536029529
 21
-20.9337219739345
 31
0.0
  0
LINE
  5
28209
330
18
100
AcDbEntity
  8
0
100
AcDbLine
 10
-51.0598536029529
 20
-7.205150545363506
 30
0.0
 11
-51.0598536029529
 21
-15.66229340250574
 31
0.0
  0
LINE
  5
2820A
330
18
100
AcDbEntity
  8
0
100
AcDbLine
 10
-46.55985360295288
 20
-20.05670532014211
 30
0.0
 11
-40.5598536029529
 21
-20.05670532014211
 31
0.0
  0
LINE
  5
2820B
330
18
100
AcDbEntity
  8
0
100
AcDbLine
 10
-40.5598536029529
 20
-20.9337219739345
 30
0.0
 11
-46.55985360295288
 21
-20.9337219739345
 31
0.0
  0
LINE
  5
2820C
330
18
100
AcDbEntity
  8
0
100
AcDbLine
 10
-46.55985360295288
 20
-20.05670532014211
 30
0.0
 11
-46.55985360295288
 21
-20.9337219739345
 31
0.0
  0
LINE
  5
2820D
330
18
100
AcDbEntity
  8
0
100
AcDbLine
 10
-46.55985360295288
 20
-20.9337219739345
 30
0.0
 11
-51.0598536029529
 21
-15.6622934025056
 31
0.0
  0
LINE
  5
2820E
330
18
100
AcDbEntity
  8
0
100
AcDbLine
 10
-46.55985360295288
 20
-1.933721973934567
 30
0.0
 11
-51.0598536029529
 21
-7.205150545363506
 31
0.0
  0
LINE
  5
2820F
330
18
100
AcDbEntity
  8
0
100
AcDbLine
 10
-47.5598536029529
 20
-3.105150545363486
 30
0.0
 11
-47.5598536029529
 21
-11.43372197393456
 31
0.0
  0
ARC
  5
28210
330
18
100
AcDbEntity
  8
0
100
AcDbCircle
 10
-39.73359374670167
 20
-6.683721973934793
 30
0.0
 40
7.848428098993441
100
AcDbArc
 50
150.4309251395764
 51
209.5690748604233
  0
LINE
  5
28211
330
18
100
AcDbEntity
  8
0
100
AcDbLine
 10
-46.55985360295288
 20
-12.3107386277269
 30
0.0
 11
-40.5598536029529
 21
-12.3107386277269
 31
0.0
  0
LINE
  5
28212
330
18
100
AcDbEntity
  8
0
100
AcDbLine
 10
-46.55985360295288
 20
-10.55670532014256
 30
0.0
 11
-40.5598536029529
 21
-10.55670532014256
 31
0.0
  0
LINE
  5
28213
330
18
100
AcDbEntity
  8
0
100
AcDbLine
 10
-46.55985360295288
 20
-12.3107386277269
 30
0.0
 11
-46.55985360295288
 21
-10.55670532014256
 31
0.0
  0
LINE
  5
28214
330
18
100
AcDbEntity
  8
0
100
AcDbLine
 10
-46.55985360295288
 20
-2.810738627727019
 30
0.0
 11
-40.5598536029529
 21
-2.810738627727019
 31
0.0
  0
LINE
  5
28215
330
18
100
AcDbEntity
  8
0
100
AcDbLine
 10
-40.5598536029529
 20
-1.933721973934567
 30
0.0
 11
-46.55985360295288
 21
-1.933721973934567
 31
0.0
  0
LINE
  5
28216
330
18
100
AcDbEntity
  8
0
100
AcDbLine
 10
-46.55985360295288
 20
-2.810738627727019
 30
0.0
 11
-46.55985360295288
 21
-1.933721973934567
 31
0.0
  0
LINE
  5
28217
330
18
100
AcDbEntity
  8
0
100
AcDbLine
 10
-37.55985360295289
 20
-1.933721973934567
 30
0.0
 11
-37.55985360295289
 21
-20.9337219739345
 31
0.0
  0
LINE
  5
28218
330
18
100
AcDbEntity
  8
0
100
AcDbLine
 10
-35.55985360295311
 20
-20.9337219739345
 30
0.0
 11
-35.5598536029529
 21
-1.933721973934567
 31
0.0
  0
LINE
  5
28219
330
18
100
AcDbEntity
  8
0
100
AcDbLine
 10
-35.5598536029529
 20
-18.8337219739351
 30
0.0
 11
-37.55985360295289
 21
-18.8337219739351
 31
0.0
  0
LINE
  5
2821A
330
18
100
AcDbEntity
  8
0
100
AcDbLine
 10
-35.5598536029529
 20
-4.033721973934929
 30
0.0
 11
-37.55985360295289
 21
-4.033721973934929
 31
0.0
  0
LINE
  5
2821B
330
18
100
AcDbEntity
  8
0
100
AcDbLine
 10
-32.55985360295357
 20
-1.933721973934567
 30
0.0
 11
-32.55985360295357
 21
-20.9337219739345
 31
0.0
  0
LINE
  5
2821E
330
18
100
AcDbEntity
  8
0
100
AcDbLine
 10
-31.55985360295312
 20
-20.43372197393455
 30
0.0
 11
-32.55985360295357
 21
-20.43372197393455
 31
0.0
  0
LINE
  5
2821F
330
18
100
AcDbEntity
  8
0
100
AcDbLine
 10
-32.55985360295357
 20
-20.9337219739345
 30
0.0
 11
-35.55985360295311
 21
-20.9337219739345
 31
0.0
  0
LINE
  5
28220
330
18
100
AcDbEntity
  8
0
100
AcDbLine
 10
-35.55985360295311
 20
-20.05670532014211
 30
0.0
 11
-32.55985360295357
 21
-20.05670532014211
 31
0.0
  0
LINE
  5
28221
330
18
100
AcDbEntity
  8
0
100
AcDbLine
 10
-35.55985360295311
 20
-10.55670532014256
 30
0.0
 11
-32.55985360295357
 21
-10.55670532014268
 31
0.0
  0
LINE
  5
28222
330
18
100
AcDbEntity
  8
0
100
AcDbLine
 10
-35.55985360295311
 20
-12.31073862772678
 30
0.0
 11
-32.55985360295357
 21
-12.31073862772678
 31
0.0
  0
LINE
  5
28223
330
18
100
AcDbEntity
  8
0
100
AcDbLine
 10
-31.55985360295309
 20
-2.433721973934542
 30
0.0
 11
-32.55985360295353
 21
-2.433721973934538
 31
0.0
  0
LINE
  5
28224
330
18
100
AcDbEntity
  8
0
100
AcDbLine
 10
-32.55985360295357
 20
-1.933721973934567
 30
0.0
 11
-35.5598536029529
 21
-1.933721973934567
 31
0.0
  0
LINE
  5
28225
330
18
100
AcDbEntity
  8
0
100
AcDbLine
 10
-35.5598536029529
 20
-2.810738627727019
 30
0.0
 11
-32.55985360295357
 21
-2.810738627727019
 31
0.0
  0
CIRCLE
  5
282C6
330
18
100
AcDbEntity
  8
0
100
AcDbCircle
 10
33.44194875028552
 20
327.2669315250567
 30
0.0
 40
2.399999999999999
  0
CIRCLE
  5
282C7
330
18
100
AcDbEntity
  8
細線
100
AcDbCircle
 10
33.44194875028552
 20
327.2669315250567
 30
0.0
 40
3.0
  0
LINE
  5
282C8
330
18
100
AcDbEntity
  8
中心線
100
AcDbLine
 10
35.94194875028664
 20
322.9368045061351
 30
0.0
 11
30.94194875028665
 21
331.5970585439793
 31
0.0
  0
LINE
  5
2835F
330
18
100
AcDbEntity
  8
破線
100
AcDbLine
 10
6.940146559888999
 20
-21.43372197393455
 30
0.0
 11
6.940146608741507
 21
-19.93372197393455
 31
0.0
  0
LINE
  5
28360
330
18
100
AcDbEntity
  8
破線
100
AcDbLine
 10
6.940146608741507
 20
-19.93372197393455
 30
0.0
 11
54.94014639704754
 21
-19.93372197393455
 31
0.0
  0
LINE
  5
28361
330
18
100
AcDbEntity
  8
破線
100
AcDbLine
 10
102.9401461853534
 20
-19.93372540955895
 30
0.0
 11
54.94014639704754
 21
-19.93372197393455
 31
0.0
  0
LINE
  5
28362
330
18
100
AcDbEntity
  8
破線
100
AcDbLine
 10
102.9401461268427
 20
-21.43372540955895
 30
0.0
 11
102.9401461853534
 21
-19.93372540955895
 31
0.0
  0
LINE
  5
28438
330
18
100
AcDbEntity
  8
0
100
AcDbLine
 10
-156.3246419656304
 20
237.530960933011
 30
0.0
 11
-156.3246419656304
 21
242.5309609264111
 31
0.0
  0
LINE
  5
28490
330
18
100
AcDbEntity
  8
0
100
AcDbLine
 10
-156.3110628960894
 20
-13.60648605384501
 30
0.0
 11
-178.2019701386921
 21
-10.85306360283138
 31
0.0
  0
LINE
  5
28491
330
18
100
AcDbEntity
  8
0
100
AcDbLine
 10
-156.3052071739913
 20
-11.20649319749744
 30
0.0
 11
-178.196114416594
 21
-8.453070746483923
 31
0.0
  0
LINE
  5
28492
330
18
100
AcDbEntity
  8
0
100
AcDbLine
 10
-156.3061831276741
 20
-11.60649200688872
 30
0.0
 11
-178.1970903702768
 21
-8.853069555875299
 31
0.0
  0
LINE
  5
28493
330
18
100
AcDbEntity
  8
0
100
AcDbLine
 10
-156.3003274055763
 20
-9.206499150541251
 30
0.0
 11
-178.1912346481789
 21
-6.453076699527717
 31
0.0
  0
LINE
  5
284A2
330
18
100
AcDbEntity
  8
0
100
AcDbLine
 10
-156.3100869424063
 20
-13.93372197063261
 30
0.0
 11
-156.3100869424063
 21
-8.933721977232471
 31
0.0
  0
CIRCLE
  5
288C0
102
{ACAD_REACTORS
330
288C8
102
}
330
18
100
AcDbEntity
  8
細線
100
AcDbCircle
 10
278.3665105451031
 20
330.5998456338505
 30
0.0
 40
3.5
  0
ARC
  5
288C1
102
{ACAD_REACTORS
330
288C8
102
}
330
18
100
AcDbEntity
  8
細線
100
AcDbCircle
 10
279.3993196815431
 20
330.9156070749508
 30
0.0
 40
0.5
100
AcDbArc
 50
149.3463876628232
 51
244.6536123371771
  0
ARC
  5
288C2
102
{ACAD_REACTORS
330
288C8
102
}
330
18
100
AcDbEntity
  8
細線
100
AcDbCircle
 10
277.576648547354
 20
331.3364038627182
 30
0.0
 40
0.5
100
AcDbArc
 50
269.3463876628155
 51
4.65361233717788
  0
ARC
  5
288C3
102
{ACAD_REACTORS
330
288C8
102
}
330
18
100
AcDbEntity
  8
細線
100
AcDbCircle
 10
278.1235634064115
 20
329.5475259638826
 30
0.0
 40
0.5
100
AcDbArc
 50
29.34638766282764
 51
124.653612337179
  0
ARC
  5
288C4
102
{ACAD_REACTORS
330
288C8
102
}
330
18
100
AcDbEntity
  8
細線
100
AcDbCircle
 10
277.3337014086631
 20
330.2840841927498
 30
0.0
 40
0.5
100
AcDbArc
 50
329.3463876628231
 51
64.65361233717722
  0
ARC
  5
288C5
102
{ACAD_REACTORS
330
288C8
102
}
330
18
100
AcDbEntity
  8
細線
100
AcDbCircle
 10
279.1563725428516
 20
329.8632874049831
 30
0.0
 40
0.5
100
AcDbArc
 50
89.34638766281551
 51
184.6536123371778
  0
CIRCLE
  5
288C6
102
{ACAD_REACTORS
330
288C8
102
}
330
18
100
AcDbEntity
  8
細線
100
AcDbCircle
 10
278.3665105451031
 20
330.5998456338505
 30
0.0
 40
0.8299999999999998
  0
ARC
  5
288C7
102
{ACAD_REACTORS
330
288C8
102
}
330
18
100
AcDbEntity
  8
細線
100
AcDbCircle
 10
278.6094576837943
 20
331.6521653038186
 30
0.0
 40
0.5
100
AcDbArc
 50
209.3463876628276
 51
304.6536123371791
  0
CIRCLE
  5
288C9
102
{ACAD_REACTORS
330
288D1
102
}
330
18
100
AcDbEntity
  8
細線
100
AcDbCircle
 10
329.8057951435501
 20
279.1605610354035
 30
0.0
 40
0.8299999999999998
  0
ARC
  5
288CA
102
{ACAD_REACTORS
330
288D1
102
}
330
18
100
AcDbEntity
  8
細線
100
AcDbCircle
 10
328.7729860071101
 20
278.8447995943029
 30
0.0
 40
0.5
100
AcDbArc
 50
329.3463876628231
 51
64.65361233717722
  0
ARC
  5
288CB
102
{ACAD_REACTORS
330
288D1
102
}
330
18
100
AcDbEntity
  8
細線
100
AcDbCircle
 10
329.0159331458013
 20
279.897119264271
 30
0.0
 40
0.5
100
AcDbArc
 50
269.3463876628155
 51
4.65361233717788
  0
CIRCLE
  5
288CC
102
{ACAD_REACTORS
330
288D1
102
}
330
18
100
AcDbEntity
  8
細線
100
AcDbCircle
 10
329.8057951435501
 20
279.1605610354035
 30
0.0
 40
3.5
  0
ARC
  5
288CD
102
{ACAD_REACTORS
330
288D1
102
}
330
18
100
AcDbEntity
  8
細線
100
AcDbCircle
 10
330.0487422822415
 20
280.2128807053716
 30
0.0
 40
0.5
100
AcDbArc
 50
209.3463876628276
 51
304.6536123371791
  0
ARC
  5
288CE
102
{ACAD_REACTORS
330
288D1
102
}
330
18
100
AcDbEntity
  8
細線
100
AcDbCircle
 10
330.5956571412986
 20
278.424002806536
 30
0.0
 40
0.5
100
AcDbArc
 50
89.34638766281551
 51
184.6536123371778
  0
ARC
  5
288CF
102
{ACAD_REACTORS
330
288D1
102
}
330
18
100
AcDbEntity
  8
細線
100
AcDbCircle
 10
329.5628480048588
 20
278.1082413654355
 30
0.0
 40
0.5
100
AcDbArc
 50
29.34638766282764
 51
124.653612337179
  0
ARC
  5
288D0
102
{ACAD_REACTORS
330
288D1
102
}
330
18
100
AcDbEntity
  8
細線
100
AcDbCircle
 10
330.8386042799903
 20
279.476322476504
 30
0.0
 40
0.5
100
AcDbArc
 50
149.3463876628232
 51
244.6536123371771
  0
CIRCLE
  5
288D2
102
{ACAD_REACTORS
330
288DA
102
}
330
18
100
AcDbEntity
  8
細線
100
AcDbCircle
 10
259.5384256295738
 20
260.332476119874
 30
0.0
 40
0.8299999999999998
  0
ARC
  5
288D3
102
{ACAD_REACTORS
330
288DA
102
}
330
18
100
AcDbEntity
  8
細線
100
AcDbCircle
 10
258.5056164931339
 20
260.0167146787735
 30
0.0
 40
0.5
100
AcDbArc
 50
329.3463876628231
 51
64.65361233717722
  0
ARC
  5
288D4
102
{ACAD_REACTORS
330
288DA
102
}
330
18
100
AcDbEntity
  8
細線
100
AcDbCircle
 10
258.748563631825
 20
261.0690343487419
 30
0.0
 40
0.5
100
AcDbArc
 50
269.3463876628155
 51
4.65361233717788
  0
CIRCLE
  5
288D5
102
{ACAD_REACTORS
330
288DA
102
}
330
18
100
AcDbEntity
  8
細線
100
AcDbCircle
 10
259.5384256295738
 20
260.332476119874
 30
0.0
 40
3.5
  0
ARC
  5
288D6
102
{ACAD_REACTORS
330
288DA
102
}
330
18
100
AcDbEntity
  8
細線
100
AcDbCircle
 10
259.7813727682652
 20
261.3847957898423
 30
0.0
 40
0.5
100
AcDbArc
 50
209.3463876628276
 51
304.6536123371791
  0
ARC
  5
288D7
102
{ACAD_REACTORS
330
288DA
102
}
330
18
100
AcDbEntity
  8
細線
100
AcDbCircle
 10
260.3282876273222
 20
259.5959178910068
 30
0.0
 40
0.5
100
AcDbArc
 50
89.34638766281551
 51
184.6536123371778
  0
ARC
  5
288D8
102
{ACAD_REACTORS
330
288DA
102
}
330
18
100
AcDbEntity
  8
細線
100
AcDbCircle
 10
259.2954784908826
 20
259.2801564499063
 30
0.0
 40
0.5
100
AcDbArc
 50
29.34638766282764
 51
124.653612337179
  0
ARC
  5
288D9
102
{ACAD_REACTORS
330
288DA
102
}
330
18
100
AcDbEntity
  8
細線
100
AcDbCircle
 10
260.5712347660138
 20
260.6482375609747
 30
0.0
 40
0.5
100
AcDbArc
 50
149.3463876628232
 51
244.6536123371771
  0
LINE
  5
288FA
330
18
100
AcDbEntity
  8
0
100
AcDbLine
 10
-130.2735050407773
 20
340.8821011380521
 30
0.0
 11
-119.4628453617267
 21
348.2907088839053
 31
0.0
  0
LINE
  5
288FB
330
18
100
AcDbEntity
  8
0
100
AcDbLine
 10
-129.7502596746612
 20
337.0244285620688
 30
0.0
 11
-119.113408360979
 21
344.2968742667218
 31
0.0
  0
LINE
  5
288FC
330
18
100
AcDbEntity
  8
0
100
AcDbLine
 10
-130.275460787453
 20
337.3838075507498
 30
0.0
 11
-119.3065433850114
 21
329.8781143086698
 31
0.0
  0
LINE
  5
288FD
330
18
100
AcDbEntity
  8
0
100
AcDbLine
 10
-130.2767927454806
 20
333.1751951632284
 30
0.0
 11
-119.3052114269835
 21
325.6754056891042
 31
0.0
  0
LINE
  5
28A1B
102
{ACAD_REACTORS
330
28A3E
102
}
330
18
100
AcDbEntity
  8
0
100
AcDbLine
 10
-192.4058347728785
 20
330.2130688602074
 30
0.0
 11
-192.4058347728785
 21
343.8130688602068
 31
0.0
  0
LINE
  5
28A1C
102
{ACAD_REACTORS
330
28A3E
102
}
330
18
100
AcDbEntity
  8
0
100
AcDbLine
 10
-178.2057896714038
 20
329.2130749132498
 30
0.0
 11
-178.2057896714029
 21
344.8130749132502
 31
0.0
  0
LINE
  5
28A1D
102
{ACAD_REACTORS
330
28A3E
102
}
330
18
100
AcDbEntity
  8
0
100
AcDbLine
 10
-179.3057896714035
 20
330.2130688602074
 30
0.0
 11
-192.4058347728785
 21
330.2130688602074
 31
0.0
  0
LINE
  5
28A1E
102
{ACAD_REACTORS
330
28A3E
102
}
330
18
100
AcDbEntity
  8
0
100
AcDbLine
 10
-178.2057896714029
 20
329.2130749132498
 30
0.0
 11
-179.3057896714024
 21
329.2130749132498
 31
0.0
  0
LINE
  5
28A1F
102
{ACAD_REACTORS
330
28A3E
102
}
330
18
100
AcDbEntity
  8
0
100
AcDbLine
 10
-179.3057896714033
 20
329.2130749132498
 30
0.0
 11
-179.3057896714035
 21
330.2130688602074
 31
0.0
  0
LINE
  5
28A20
102
{ACAD_REACTORS
330
28A3E
102
}
330
18
100
AcDbEntity
  8
0
100
AcDbLine
 10
-190.391892459174
 20
345.2778268405758
 30
0.0
 11
-184.925834772878
 21
346.2416402887784
 31
0.0
  0
LINE
  5
28A21
102
{ACAD_REACTORS
330
28A3E
102
}
330
18
100
AcDbEntity
  8
0
100
AcDbLine
 10
-179.3057896714024
 20
343.8130688602068
 30
0.0
 11
-192.4058347728785
 21
343.8130688602068
 31
0.0
  0
LINE
  5
28A22
102
{ACAD_REACTORS
330
28A3E
102
}
330
18
100
AcDbEntity
  8
0
100
AcDbLine
 10
-195.2909776300213
 20
347.6307831459211
 30
0.0
 11
-184.9258347728789
 21
347.6307831459211
 31
0.0
  0
LINE
  5
28A23
102
{ACAD_REACTORS
330
28A3E
102
}
330
18
100
AcDbEntity
  8
0
100
AcDbLine
 10
-197.1658347728786
 20
347.2130688602069
 30
0.0
 11
-185.897263344307
 21
347.2130688602072
 31
0.0
  0
LINE
  5
28A24
102
{ACAD_REACTORS
330
28A3E
102
}
330
18
100
AcDbEntity
  8
0
100
AcDbLine
 10
-201.9058347728789
 20
339.3880688602066
 30
0.0
 11
-201.9058347728789
 21
342.8380688602068
 31
0.0
  0
LINE
  5
28A25
102
{ACAD_REACTORS
330
28A3E
102
}
330
18
100
AcDbEntity
  8
0
100
AcDbLine
 10
-201.9058347728789
 20
339.3880688602066
 30
0.0
 11
-192.4058347728785
 21
339.3880688602066
 31
0.0
  0
LINE
  5
28A26
102
{ACAD_REACTORS
330
28A3E
102
}
330
18
100
AcDbEntity
  8
0
100
AcDbLine
 10
-201.9058347728789
 20
338.7380688602068
 30
0.0
 11
-192.4058347728785
 21
338.7380688602068
 31
0.0
  0
LINE
  5
28A27
102
{ACAD_REACTORS
330
28A3E
102
}
330
18
100
AcDbEntity
  8
0
100
AcDbLine
 10
-201.9058347728789
 20
335.2880688602068
 30
0.0
 11
-192.4058347728785
 21
335.2880688602072
 31
0.0
  0
LINE
  5
28A28
102
{ACAD_REACTORS
330
28A3E
102
}
330
18
100
AcDbEntity
  8
0
100
AcDbLine
 10
-201.9058347728789
 20
334.6380688602071
 30
0.0
 11
-192.4058347728785
 21
334.6380688602071
 31
0.0
  0
LINE
  5
28A29
102
{ACAD_REACTORS
330
28A3E
102
}
330
18
100
AcDbEntity
  8
0
100
AcDbLine
 10
-201.9058347728789
 20
331.1880688602069
 30
0.0
 11
-192.4058347728785
 21
331.1880688602069
 31
0.0
  0
LINE
  5
28A2A
102
{ACAD_REACTORS
330
28A3E
102
}
330
18
100
AcDbEntity
  8
0
100
AcDbLine
 10
-201.9058347728789
 20
335.2880688602068
 30
0.0
 11
-201.9058347728789
 21
338.7380688602068
 31
0.0
  0
LINE
  5
28A2B
102
{ACAD_REACTORS
330
28A3E
102
}
330
18
100
AcDbEntity
  8
0
100
AcDbLine
 10
-201.9058347728785
 20
331.1880688602069
 30
0.0
 11
-201.9058347728789
 21
334.6380688602076
 31
0.0
  0
LINE
  5
28A2C
102
{ACAD_REACTORS
330
28A3E
102
}
330
18
100
AcDbEntity
  8
0
100
AcDbLine
 10
-195.7086919157354
 20
346.2416402887784
 30
0.0
 11
-192.4058347728785
 21
346.2416402887784
 31
0.0
  0
LINE
  5
28A2D
102
{ACAD_REACTORS
330
28A3E
102
}
330
18
100
AcDbEntity
  8
0
100
AcDbLine
 10
-195.805834772879
 20
345.0759260030641
 30
0.0
 11
-192.4058347728785
 21
345.0759260030641
 31
0.0
  0
LINE
  5
28A2E
102
{ACAD_REACTORS
330
28A3E
102
}
330
18
100
AcDbEntity
  8
0
100
AcDbLine
 10
-201.9058347728789
 20
342.8380688602068
 30
0.0
 11
-192.4058347728785
 21
342.8380688602068
 31
0.0
  0
LINE
  5
28A2F
102
{ACAD_REACTORS
330
28A3E
102
}
330
18
100
AcDbEntity
  8
0
100
AcDbLine
 10
-195.7086919157354
 20
346.2416402887784
 30
0.0
 11
-195.7086919157354
 21
347.2130688602069
 31
0.0
  0
LINE
  5
28A30
102
{ACAD_REACTORS
330
28A3E
102
}
330
18
100
AcDbEntity
  8
0
100
AcDbLine
 10
-197.1658347728786
 20
347.2130688602069
 30
0.0
 11
-198.137263344307
 21
346.2416402887784
 31
0.0
  0
LINE
  5
28A31
102
{ACAD_REACTORS
330
28A3E
102
}
330
18
100
AcDbEntity
  8
0
100
AcDbLine
 10
-195.7086919157354
 20
344.0073545744926
 30
0.0
 11
-195.805834772879
 21
345.0759260030641
 31
0.0
  0
LINE
  5
28A32
102
{ACAD_REACTORS
330
28A3E
102
}
330
18
100
AcDbEntity
  8
0
100
AcDbLine
 10
-197.1658347728786
 20
344.0073545744926
 30
0.0
 11
-195.7086919157361
 21
344.0073545744926
 31
0.0
  0
LINE
  5
28A33
102
{ACAD_REACTORS
330
28A3E
102
}
330
18
100
AcDbEntity
  8
0
100
AcDbLine
 10
-198.137263344307
 20
344.9787831459211
 30
0.0
 11
-197.1658347728786
 21
344.0073545744926
 31
0.0
  0
LINE
  5
28A34
102
{ACAD_REACTORS
330
28A3E
102
}
330
18
100
AcDbEntity
  8
0
100
AcDbLine
 10
-198.137263344307
 20
344.9787831459211
 30
0.0
 11
-198.137263344307
 21
346.2416402887784
 31
0.0
  0
LINE
  5
28A35
102
{ACAD_REACTORS
330
28A3E
102
}
330
18
100
AcDbEntity
  8
0
100
AcDbLine
 10
-195.7086919157354
 20
347.2130688602069
 30
0.0
 11
-195.2909776300213
 21
347.6307831459211
 31
0.0
  0
LINE
  5
28A36
102
{ACAD_REACTORS
330
28A3E
102
}
330
18
100
AcDbEntity
  8
0
100
AcDbLine
 10
-190.7932633443066
 20
344.2987831459209
 30
0.0
 11
-190.7932633443071
 21
344.7994916462553
 31
0.0
  0
ARC
  5
28A37
102
{ACAD_REACTORS
330
28A3E
102
}
330
18
100
AcDbEntity
  8
0
100
AcDbCircle
 10
-190.3075490585925
 20
344.2987831459209
 30
0.0
 40
0.4857142857142857
100
AcDbArc
 50
180.000000000013
 51
270.0
  0
ARC
  5
28A38
102
{ACAD_REACTORS
330
28A3E
102
}
330
18
100
AcDbEntity
  8
0
100
AcDbCircle
 10
-190.3075490585931
 20
344.7994916462557
 30
0.0
 40
0.4857142857142857
100
AcDbArc
 50
100.0000000000035
 51
180.000000000013
  0
LINE
  5
28A39
102
{ACAD_REACTORS
330
28A3E
102
}
330
18
100
AcDbEntity
  8
0
100
AcDbLine
 10
-192.4058347728785
 20
343.8130688602068
 30
0.0
 11
-192.4058347728785
 21
347.6307831459211
 31
0.0
  0
LINE
  5
28A3A
102
{ACAD_REACTORS
330
28A3E
102
}
330
18
100
AcDbEntity
  8
0
100
AcDbLine
 10
-184.925834772878
 20
346.2416402887784
 30
0.0
 11
-184.9258347728784
 21
347.6307831459211
 31
0.0
  0
LINE
  5
28A3B
102
{ACAD_REACTORS
330
28A3E
102
}
330
18
100
AcDbEntity
  8
0
100
AcDbLine
 10
-185.897263344307
 20
347.2130688602072
 30
0.0
 11
-185.897263344307
 21
347.6307831459211
 31
0.0
  0
LINE
  5
28A3C
102
{ACAD_REACTORS
330
28A3E
102
}
330
18
100
AcDbEntity
  8
0
100
AcDbLine
 10
-178.2057896714029
 20
344.8130749132502
 30
0.0
 11
-179.3057896714024
 21
344.8130749132502
 31
0.0
  0
LINE
  5
28A3D
102
{ACAD_REACTORS
330
28A3E
102
}
330
18
100
AcDbEntity
  8
0
100
AcDbLine
 10
-179.3057896714024
 20
343.8130688602068
 30
0.0
 11
-179.3057896714024
 21
344.8130749132502
 31
0.0
  0
LINE
  5
28A3F
102
{ACAD_REACTORS
330
28A5F
102
}
330
18
100
AcDbEntity
  8
0
100
AcDbLine
 10
-178.2057896714031
 20
246.4461662208409
 30
0.0
 11
-179.3057896714025
 21
246.4461662208409
 31
0.0
  0
LINE
  5
28A40
102
{ACAD_REACTORS
330
28A5F
102
}
330
18
100
AcDbEntity
  8
0
100
AcDbLine
 10
-178.2057896714033
 20
234.44616622084
 30
0.0
 11
-179.3057896714028
 21
234.44616622084
 31
0.0
  0
LINE
  5
28A41
102
{ACAD_REACTORS
330
28A5F
102
}
330
18
100
AcDbEntity
  8
0
100
AcDbLine
 10
-201.905834772879
 20
236.9211601677974
 30
0.0
 11
-192.4058347728786
 21
236.9211601677981
 31
0.0
  0
LINE
  5
28A42
102
{ACAD_REACTORS
330
28A5F
102
}
330
18
100
AcDbEntity
  8
0
100
AcDbLine
 10
-201.905834772879
 20
240.3711601677978
 30
0.0
 11
-192.4058347728786
 21
240.3711601677978
 31
0.0
  0
LINE
  5
28A43
102
{ACAD_REACTORS
330
28A5F
102
}
330
18
100
AcDbEntity
  8
0
100
AcDbLine
 10
-201.905834772879
 20
241.0211601677975
 30
0.0
 11
-192.4058347728786
 21
241.0211601677975
 31
0.0
  0
LINE
  5
28A44
102
{ACAD_REACTORS
330
28A5F
102
}
330
18
100
AcDbEntity
  8
0
100
AcDbLine
 10
-201.905834772879
 20
244.4711601677978
 30
0.0
 11
-192.4058347728786
 21
244.4711601677978
 31
0.0
  0
LINE
  5
28A45
102
{ACAD_REACTORS
330
28A5F
102
}
330
18
100
AcDbEntity
  8
0
100
AcDbLine
 10
-197.1658347728789
 20
248.8461601677978
 30
0.0
 11
-185.8972633443071
 21
248.8461601677983
 31
0.0
  0
LINE
  5
28A46
102
{ACAD_REACTORS
330
28A5F
102
}
330
18
100
AcDbEntity
  8
0
100
AcDbLine
 10
-195.2909776300215
 20
249.263874453512
 30
0.0
 11
-184.9258347728791
 21
249.263874453512
 31
0.0
  0
LINE
  5
28A47
102
{ACAD_REACTORS
330
28A5F
102
}
330
18
100
AcDbEntity
  8
0
100
AcDbLine
 10
-195.8058347728792
 20
246.7090173106548
 30
0.0
 11
-192.4058347728786
 21
246.7090173106548
 31
0.0
  0
LINE
  5
28A48
102
{ACAD_REACTORS
330
28A5F
102
}
330
18
100
AcDbEntity
  8
0
100
AcDbLine
 10
-195.7086919157358
 20
247.8747315963693
 30
0.0
 11
-192.4058347728786
 21
247.8747315963693
 31
0.0
  0
LINE
  5
28A49
102
{ACAD_REACTORS
330
28A5F
102
}
330
18
100
AcDbEntity
  8
0
100
AcDbLine
 10
-201.905834772879
 20
241.0211601677975
 30
0.0
 11
-201.905834772879
 21
244.4711601677978
 31
0.0
  0
LINE
  5
28A4A
102
{ACAD_REACTORS
330
28A5F
102
}
330
18
100
AcDbEntity
  8
0
100
AcDbLine
 10
-201.905834772879
 20
236.9211601677974
 30
0.0
 11
-201.905834772879
 21
240.3711601677978
 31
0.0
  0
LINE
  5
28A4B
102
{ACAD_REACTORS
330
28A5F
102
}
330
18
100
AcDbEntity
  8
0
100
AcDbLine
 10
-195.7086919157358
 20
248.8461601677978
 30
0.0
 11
-195.2909776300215
 21
249.263874453512
 31
0.0
  0
LINE
  5
28A4C
102
{ACAD_REACTORS
330
28A5F
102
}
330
18
100
AcDbEntity
  8
0
100
AcDbLine
 10
-198.1372633443074
 20
246.611874453512
 30
0.0
 11
-198.1372633443074
 21
247.8747315963693
 31
0.0
  0
LINE
  5
28A4D
102
{ACAD_REACTORS
330
28A5F
102
}
330
18
100
AcDbEntity
  8
0
100
AcDbLine
 10
-198.1372633443074
 20
246.611874453512
 30
0.0
 11
-197.1658347728789
 21
245.6404458820835
 31
0.0
  0
LINE
  5
28A4E
102
{ACAD_REACTORS
330
28A5F
102
}
330
18
100
AcDbEntity
  8
0
100
AcDbLine
 10
-197.1658347728789
 20
245.6404458820835
 30
0.0
 11
-195.7086919157363
 21
245.6404458820835
 31
0.0
  0
LINE
  5
28A4F
102
{ACAD_REACTORS
330
28A5F
102
}
330
18
100
AcDbEntity
  8
0
100
AcDbLine
 10
-195.7086919157358
 20
245.6404458820835
 30
0.0
 11
-195.8058347728792
 21
246.7090173106548
 31
0.0
  0
LINE
  5
28A50
102
{ACAD_REACTORS
330
28A5F
102
}
330
18
100
AcDbEntity
  8
0
100
AcDbLine
 10
-197.1658347728789
 20
248.8461601677978
 30
0.0
 11
-198.1372633443074
 21
247.8747315963693
 31
0.0
  0
LINE
  5
28A51
102
{ACAD_REACTORS
330
28A5F
102
}
330
18
100
AcDbEntity
  8
0
100
AcDbLine
 10
-195.7086919157358
 20
247.8747315963693
 30
0.0
 11
-195.7086919157358
 21
248.8461601677978
 31
0.0
  0
LINE
  5
28A52
102
{ACAD_REACTORS
330
28A5F
102
}
330
18
100
AcDbEntity
  8
0
100
AcDbLine
 10
-192.4058347728786
 20
235.4461601677976
 30
0.0
 11
-192.4058347728786
 21
245.4461601677977
 31
0.0
  0
LINE
  5
28A53
102
{ACAD_REACTORS
330
28A5F
102
}
330
18
100
AcDbEntity
  8
0
100
AcDbLine
 10
-179.3057896714025
 20
235.4461601677976
 30
0.0
 11
-192.4058347728786
 21
235.4461601677976
 31
0.0
  0
LINE
  5
28A54
102
{ACAD_REACTORS
330
28A5F
102
}
330
18
100
AcDbEntity
  8
0
100
AcDbLine
 10
-179.3057896714035
 20
234.44616622084
 30
0.0
 11
-179.305789671404
 21
235.4461601677976
 31
0.0
  0
LINE
  5
28A55
102
{ACAD_REACTORS
330
28A5F
102
}
330
18
100
AcDbEntity
  8
0
100
AcDbLine
 10
-190.3918924591744
 20
246.9109181481668
 30
0.0
 11
-184.9258347728781
 21
247.8747315963693
 31
0.0
  0
LINE
  5
28A56
102
{ACAD_REACTORS
330
28A5F
102
}
330
18
100
AcDbEntity
  8
0
100
AcDbLine
 10
-179.3057896714025
 20
245.4461601677977
 30
0.0
 11
-192.4058347728786
 21
245.4461601677977
 31
0.0
  0
LINE
  5
28A57
102
{ACAD_REACTORS
330
28A5F
102
}
330
18
100
AcDbEntity
  8
0
100
AcDbLine
 10
-192.4058347728786
 20
245.4461601677977
 30
0.0
 11
-192.4058347728786
 21
249.263874453512
 31
0.0
  0
ARC
  5
28A58
102
{ACAD_REACTORS
330
28A5F
102
}
330
18
100
AcDbEntity
  8
0
100
AcDbCircle
 10
-190.3075490585933
 20
246.4325829538466
 30
0.0
 40
0.4857142857142857
100
AcDbArc
 50
100.0000000000035
 51
180.000000000013
  0
ARC
  5
28A59
102
{ACAD_REACTORS
330
28A5F
102
}
330
18
100
AcDbEntity
  8
0
100
AcDbCircle
 10
-190.3075490585927
 20
245.9318744535118
 30
0.0
 40
0.4857142857142857
100
AcDbArc
 50
180.000000000013
 51
270.0
  0
LINE
  5
28A5A
102
{ACAD_REACTORS
330
28A5F
102
}
330
18
100
AcDbEntity
  8
0
100
AcDbLine
 10
-190.7932633443069
 20
245.9318744535118
 30
0.0
 11
-190.7932633443074
 21
246.4325829538462
 31
0.0
  0
LINE
  5
28A5B
102
{ACAD_REACTORS
330
28A5F
102
}
330
18
100
AcDbEntity
  8
0
100
AcDbLine
 10
-179.3057896714025
 20
245.4461601677977
 30
0.0
 11
-179.3057896714025
 21
246.4461662208409
 31
0.0
  0
LINE
  5
28A5C
102
{ACAD_REACTORS
330
28A5F
102
}
330
18
100
AcDbEntity
  8
0
100
AcDbLine
 10
-184.9258347728781
 20
247.8747315963693
 30
0.0
 11
-184.9258347728786
 21
249.263874453512
 31
0.0
  0
LINE
  5
28A5D
102
{ACAD_REACTORS
330
28A5F
102
}
330
18
100
AcDbEntity
  8
0
100
AcDbLine
 10
-185.8972633443071
 20
248.8461601677983
 30
0.0
 11
-185.8972633443071
 21
249.263874453512
 31
0.0
  0
LINE
  5
28A5E
102
{ACAD_REACTORS
330
28A5F
102
}
330
18
100
AcDbEntity
  8
0
100
AcDbLine
 10
-178.2057896714035
 20
234.44616622084
 30
0.0
 11
-178.2057896714031
 21
246.4461662208409
 31
0.0
  0
LINE
  5
28A72
330
18
100
AcDbEntity
  8
0
100
AcDbLine
 10
-140.8057896714033
 20
334.0730749132528
 30
0.0
 11
-140.8057896714033
 21
339.9530749132528
 31
0.0
  0
LINE
  5
28A74
330
18
100
AcDbEntity
  8
0
100
AcDbLine
 10
-140.8057896714033
 20
334.9196399226233
 30
0.0
 11
-135.9200017323345
 21
334.9196399226231
 31
0.0
  0
LINE
  5
28A7F
330
18
100
AcDbEntity
  8
0
100
AcDbLine
 10
-140.8057896714033
 20
339.1309609297099
 30
0.0
 11
-135.926496473424
 21
339.1309609297097
 31
0.0
  0
ARC
  5
28A8A
330
18
100
AcDbEntity
  8
0
100
AcDbCircle
 10
-113.80985392908
 20
340.0418490922479
 30
0.0
 40
10.0
100
AcDbArc
 50
89.99999999999893
 51
124.4230669294476
  0
ARC
  5
28A8B
330
18
100
AcDbEntity
  8
0
100
AcDbCircle
 10
-113.4694240087013
 20
336.0418490922451
 30
0.0
 40
10.0
100
AcDbArc
 50
90.00000000000225
 51
124.3605280011042
  0
ARC
  5
28A8C
330
18
100
AcDbEntity
  8
0
100
AcDbCircle
 10
-113.6593739480647
 20
338.1309609297101
 30
0.0
 40
10.0
100
AcDbArc
 50
235.6173623158387
 51
269.9999999999993
  0
ARC
  5
28A8D
330
18
100
AcDbEntity
  8
0
100
AcDbCircle
 10
-113.6620024401292
 20
333.9309609297096
 30
0.0
 40
10.0
100
AcDbArc
 50
235.6448534167733
 51
270.0
  0
ARC
  5
28A8E
330
18
100
AcDbEntity
  8
0
100
AcDbCircle
 10
-135.9264964734238
 20
349.1309609297097
 30
0.0
 40
10.0
100
AcDbArc
 50
269.9999999999985
 51
304.4230669294473
  0
LINE
  5
28A8F
330
18
100
AcDbEntity
  8
0
100
AcDbLine
 10
-140.8057896714033
 20
339.1309609297099
 30
0.0
 11
-135.9226302243999
 21
339.1309609297097
 31
0.0
  0
ARC
  5
28A90
330
18
100
AcDbEntity
  8
0
100
AcDbCircle
 10
-135.9226302243999
 20
329.1309609297097
 30
0.0
 40
10.0
100
AcDbArc
 50
55.61736231583839
 51
89.9999999999996
  0
ARC
  5
28A91
330
18
100
AcDbEntity
  8
0
100
AcDbCircle
 10
-135.9200017323348
 20
324.9196399226231
 30
0.0
 40
10.0
100
AcDbArc
 50
55.64485341677335
 51
89.9999999999992
  0
LINE
  5
28A93
102
{ACAD_REACTORS
330
28AA1
102
}
330
18
100
AcDbEntity
  8
0
100
AcDbLine
 10
-178.2057896714031
 20
-5.418515492193707
 30
0.0
 11
-179.3057896714025
 21
-5.418515492193707
 31
0.0
  0
LINE
  5
28A94
102
{ACAD_REACTORS
330
28AA1
102
}
330
18
100
AcDbEntity
  8
0
100
AcDbLine
 10
-178.2057896714033
 20
-17.4185154921946
 30
0.0
 11
-179.3057896714028
 21
-17.4185154921946
 31
0.0
  0
LINE
  5
28A95
102
{ACAD_REACTORS
330
28AA1
102
}
330
18
100
AcDbEntity
  8
0
100
AcDbLine
 10
-179.3057896714025
 20
-6.418521545237013
 30
0.0
 11
-179.3057896714025
 21
-5.418515492193707
 31
0.0
  0
LINE
  5
28A96
102
{ACAD_REACTORS
330
28AA1
102
}
330
18
100
AcDbEntity
  8
0
100
AcDbLine
 10
-201.905834772879
 20
-7.393521545236922
 30
0.0
 11
-192.4058347728786
 21
-7.393521545236922
 31
0.0
  0
LINE
  5
28A97
102
{ACAD_REACTORS
330
28AA1
102
}
330
18
100
AcDbEntity
  8
0
100
AcDbLine
 10
-201.905834772879
 20
-10.84352154523718
 30
0.0
 11
-192.4058347728786
 21
-10.84352154523718
 31
0.0
  0
LINE
  5
28A98
102
{ACAD_REACTORS
330
28AA1
102
}
330
18
100
AcDbEntity
  8
0
100
AcDbLine
 10
-201.905834772879
 20
-11.49352154523683
 30
0.0
 11
-192.4058347728786
 21
-11.49352154523683
 31
0.0
  0
LINE
  5
28A99
102
{ACAD_REACTORS
330
28AA1
102
}
330
18
100
AcDbEntity
  8
0
100
AcDbLine
 10
-201.905834772879
 20
-14.9435215452371
 30
0.0
 11
-192.4058347728786
 21
-14.94352154523665
 31
0.0
  0
LINE
  5
28A9A
102
{ACAD_REACTORS
330
28AA1
102
}
330
18
100
AcDbEntity
  8
0
100
AcDbLine
 10
-201.905834772879
 20
-10.84352154523718
 30
0.0
 11
-201.905834772879
 21
-7.393521545236922
 31
0.0
  0
LINE
  5
28A9B
102
{ACAD_REACTORS
330
28AA1
102
}
330
18
100
AcDbEntity
  8
0
100
AcDbLine
 10
-201.905834772879
 20
-14.9435215452371
 30
0.0
 11
-201.905834772879
 21
-11.49352154523683
 31
0.0
  0
LINE
  5
28A9C
102
{ACAD_REACTORS
330
28AA1
102
}
330
18
100
AcDbEntity
  8
0
100
AcDbLine
 10
-192.4058347728786
 20
-16.41852154523701
 30
0.0
 11
-192.4058347728786
 21
-6.418521545237013
 31
0.0
  0
LINE
  5
28A9D
102
{ACAD_REACTORS
330
28AA1
102
}
330
18
100
AcDbEntity
  8
0
100
AcDbLine
 10
-179.3057896714025
 20
-16.41852154523701
 30
0.0
 11
-192.4058347728786
 21
-16.41852154523701
 31
0.0
  0
LINE
  5
28A9E
102
{ACAD_REACTORS
330
28AA1
102
}
330
18
100
AcDbEntity
  8
0
100
AcDbLine
 10
-179.3057896714035
 20
-17.4185154921946
 30
0.0
 11
-179.305789671404
 21
-16.41852154523701
 31
0.0
  0
LINE
  5
28A9F
102
{ACAD_REACTORS
330
28AA1
102
}
330
18
100
AcDbEntity
  8
0
100
AcDbLine
 10
-179.3057896714025
 20
-6.418521545237013
 30
0.0
 11
-192.4058347728786
 21
-6.418521545237013
 31
0.0
  0
LINE
  5
28AA0
102
{ACAD_REACTORS
330
28AA1
102
}
330
18
100
AcDbEntity
  8
0
100
AcDbLine
 10
-178.2057896714035
 20
-17.4185154921946
 30
0.0
 11
-178.2057896714031
 21
-5.418515492193707
 31
0.0
  0
LINE
  5
28AA3
330
18
100
AcDbEntity
  8
0
100
AcDbLine
 10
-178.1912346481789
 20
-5.453076699527716
 30
0.0
 11
-178.219537304986
 21
-17.05304217187356
 31
0.0
  0
LINE
  5
28AAF
330
18
100
AcDbEntity
  8
0
100
AcDbLine
 10
-156.3061831276741
 20
-11.2305389774996
 30
0.0
 11
-157.8006782587979
 21
-11.41851549219415
 31
0.0
  0
LINE
  5
28AB0
330
18
100
AcDbEntity
  8
0
100
AcDbLine
 10
-164.1629595303065
 20
-12.61888018460917
 30
0.0
 11
-178.196114416594
 21
-14.38396023790439
 31
0.0
  0
LINE
  5
28AB1
330
18
100
AcDbEntity
  8
0
100
AcDbLine
 10
-156.3003274055763
 20
-13.63053183384706
 30
0.0
 11
-178.1912346481789
 21
-16.3839542848606
 31
0.0
  0
LINE
  5
28AB2
330
18
100
AcDbEntity
  8
0
100
AcDbLine
 10
-164.1629595303065
 20
-10.21815079977913
 30
0.0
 11
-165.753529848184
 21
-10.41821158184834
 31
0.0
  0
LINE
  5
28AB3
330
18
100
AcDbEntity
  8
0
100
AcDbLine
 10
-173.7063814375692
 20
-11.41851549219415
 30
0.0
 11
-178.2019701386921
 21
-11.98396738155693
 31
0.0
  0
LINE
  5
28AB4
330
18
100
AcDbEntity
  8
0
100
AcDbLine
 10
-165.753529848184
 20
-12.41881940253997
 30
0.0
 11
-178.1970903702768
 21
-13.98396142851302
 31
0.0
  0
LINE
  5
28AC2
330
18
100
AcDbEntity
  8
0
100
AcDbLine
 10
-165.753529848184
 20
239.0458635011016
 30
0.0
 11
-178.1970903702768
 21
237.4807214751286
 31
0.0
  0
LINE
  5
28AC3
330
18
100
AcDbEntity
  8
0
100
AcDbLine
 10
-156.3003274055763
 20
237.8341510697945
 30
0.0
 11
-178.1912346481789
 21
235.080728618781
 31
0.0
  0
LINE
  5
28AC4
330
18
100
AcDbEntity
  8
0
100
AcDbLine
 10
-164.1629595303065
 20
238.8458027190325
 30
0.0
 11
-178.196114416594
 21
237.0807226657372
 31
0.0
  0
LINE
  5
28AC5
330
18
100
AcDbEntity
  8
0
100
AcDbLine
 10
-156.3003274055763
 20
242.2581837531003
 30
0.0
 11
-178.1912346481789
 21
245.0116062041139
 31
0.0
  0
LINE
  5
28AC6
330
18
100
AcDbEntity
  8
0
100
AcDbLine
 10
-156.3061831276741
 20
239.8581908967527
 30
0.0
 11
-178.1970903702768
 21
242.6116133477663
 31
0.0
  0
LINE
  5
28AC7
330
18
100
AcDbEntity
  8
0
100
AcDbLine
 10
-156.3052071739913
 20
240.2581897061441
 30
0.0
 11
-178.196114416594
 21
243.0116121571575
 31
0.0
  0
LINE
  5
28AC8
330
18
100
AcDbEntity
  8
0
100
AcDbLine
 10
-156.3110628960894
 20
237.8581968497964
 30
0.0
 11
-178.2019701386921
 21
240.61161930081
 31
0.0
  0
LINE
  5
28AC9
330
18
100
AcDbEntity
  8
0
100
AcDbLine
 10
-173.7063814375692
 20
240.0461674114473
 30
0.0
 11
-178.2019701386921
 21
239.4807155220845
 31
0.0
  0
LINE
  5
28ACA
330
18
100
AcDbEntity
  8
0
100
AcDbLine
 10
-164.1629595303065
 20
241.2465321038625
 30
0.0
 11
-165.753529848184
 21
241.0464713217933
 31
0.0
  0
LINE
  5
28ACB
330
18
100
AcDbEntity
  8
0
100
AcDbLine
 10
-156.3061831276741
 20
240.2341439261419
 30
0.0
 11
-157.8006782587979
 21
240.0461674114473
 31
0.0
  0
LINE
  5
28B70
330
18
100
AcDbEntity
  8
中心線
100
AcDbLine
 10
-27.88791180474671
 20
326.0738320434402
 30
0.0
 11
-54.19887275329082
 21
326.0738320434402
 31
0.0
  0
LINE
  5
28B71
330
18
100
AcDbEntity
  8
中心線
100
AcDbLine
 10
206.6447502009709
 20
340.0309609297096
 30
0.0
 11
176.8125508869456
 21
340.0309609297096
 31
0.0
  0
LINE
  5
28B72
330
18
100
AcDbEntity
  8
中心線
100
AcDbLine
 10
206.6447502009709
 20
254.03096092971
 30
0.0
 11
176.8125508869456
 21
254.03096092971
 31
0.0
  0
LINE
  5
28B73
330
18
100
AcDbEntity
  8
中心線
100
AcDbLine
 10
206.6447502009708
 20
232.0309609297098
 30
0.0
 11
176.8125508869454
 21
232.0309609297098
 31
0.0
  0
LINE
  5
28CE5
330
18
100
AcDbEntity
  8
0
100
AcDbLine
 10
-33.30985188985667
 20
-0.1337093408578894
 30
0.0
 11
-33.30985214753026
 21
-1.933721973934564
 31
0.0
  0
LINE
  5
28E84
330
18
100
AcDbEntity
  8
0
100
AcDbLine
 10
-22.95779394250383
 20
12.06627802606504
 30
0.0
 11
-31.33274386473132
 21
12.06627802606504
 31
0.0
  0
LINE
  5
28E85
330
18
100
AcDbEntity
  8
0
100
AcDbLine
 10
-22.95779394250383
 20
4.866278026064886
 30
0.0
 11
-31.33274386473132
 21
4.866278026064886
 31
0.0
  0
LINE
  5
28E86
330
18
100
AcDbEntity
  8
0
100
AcDbLine
 10
-32.56397329425497
 20
12.06627802606493
 30
0.0
 11
-32.56397329425496
 21
4.866278026064771
 31
0.0
  0
LINE
  5
28E87
330
18
100
AcDbEntity
  8
0
100
AcDbLine
 10
-31.33274386473132
 20
12.06627802606493
 30
0.0
 11
-31.33274386473132
 21
4.866278026064771
 31
0.0
  0
LINE
  5
28E88
330
18
100
AcDbEntity
  8
0
100
AcDbLine
 10
-32.56397329425496
 20
4.866278026064771
 30
0.0
 11
-33.95985360295274
 21
4.866278026064659
 31
0.0
  0
LINE
  5
28E89
330
18
100
AcDbEntity
  8
0
100
AcDbLine
 10
-32.56397329425497
 20
12.06627802606493
 30
0.0
 11
-33.95985360295282
 21
12.06627802606493
 31
0.0
  0
LINE
  5
28E8A
330
18
100
AcDbEntity
  8
0
100
AcDbLine
 10
-22.95779394250383
 20
12.06627802606504
 30
0.0
 11
-22.95779394250383
 21
4.866278026064886
 31
0.0
  0
ARC
  5
2919E
330
18
100
AcDbEntity
  8
中心線
100
AcDbCircle
 10
54.94014639704904
 20
290.0309609297091
 30
0.0
 40
43.0
100
AcDbArc
 50
292.5017044191985
 51
246.619296155681
  0
ARC
  5
2919F
330
18
100
AcDbEntity
  8
0
100
AcDbCircle
 10
54.94014639704904
 20
290.0309609297091
 30
0.0
 40
48.0
100
AcDbArc
 50
252.07683310818
 51
287.9231668918183
  0
CIRCLE
  5
292BA
330
18
100
AcDbEntity
  8
細線
100
AcDbCircle
 10
76.43834404380526
 20
252.7949903343571
 30
0.0
 40
3.0
  0
CIRCLE
  5
292BB
330
18
100
AcDbEntity
  8
0
100
AcDbCircle
 10
76.43834404380526
 20
252.7949903343571
 30
0.0
 40
2.399999999999999
  0
LINE
  5
292BC
330
18
100
AcDbEntity
  8
中心線
100
AcDbLine
 10
73.93834404380497
 20
257.1251173532794
 30
0.0
 11
78.93834404380328
 21
248.4648633154341
 31
0.0
  0
CIRCLE
  5
29339
330
18
100
AcDbEntity
  8
0
100
AcDbCircle
 10
54.94014639704733
 20
290.0309609297091
 30
0.0
 40
53.99999999999978
  0
CIRCLE
  5
2933A
330
18
100
AcDbEntity
  8
0
100
AcDbCircle
 10
289.2369104394075
 20
290.0309609297092
 30
0.0
 40
48.00000000000147
  0
VIEWPORT
  5
23
330
15
100
AcDbEntity
 67
     1
  8
0
100
AcDbViewport
 10
211.7093005351724
 20
154.9181165502629
 30
0.0
 40
477.0150211202587
 41
312.1991998694052
 68
     1
 69
     1
1001
ACAD
1000
MVIEW
1002
{
1070
    16
1010
0.0
1020
0.0
1030
0.0
1010
0.0
1020
0.0
1030
1.0
1040
0.0
1040
312.1991998694052
1040
211.7093005351724
1040
154.9181165502629
1040
50.0
1040
0.0
1040
0.0
1070
     0
1070
   100
1070
     1
1070
     0
1070
     0
1070
     0
1070
     0
1070
     0
1040
0.0
1040
0.0
1040
0.0
1040
10.0
1040
10.0
1040
10.0
1040
10.0
1070
     0
1002
{
1002
}
1002
}
  0
VIEWPORT
  5
2E
330
15
100
AcDbEntity
 67
     1
  8
M_VIEW
100
AcDbViewport
 10
200.0
 20
144.0
 30
0.0
 40
400.0
 41
288.0
 68
     2
 69
     2
1001
ACAD
1000
MVIEW
1002
{
1070
    16
1010
0.0
1020
0.0
1030
0.0
1010
0.0
1020
0.0
1030
1.0
1040
0.0
1040
575.9999994990233
1040
76.72080990283503
1040
162.183685966226
1040
50.0
1040
0.0
1040
0.0
1070
     0
1070
   100
1070
     1
1070
     0
1070
     0
1070
     0
1070
     0
1070
     0
1040
0.0
1040
0.0
1040
0.0
1040
10.0
1040
10.0
1040
10.0
1040
10.0
1070
     0
1002
{
1002
}
1002
}
  0
INSERT
  5
115F
330
15
100
AcDbEntity
 67
     1
  8
FRAME025
100
AcDbBlockReference
  2
機械A4横_LBP
 10
82.74908858651452
 20
152.030959079227
 30
0.0
  0
TEXT
  5
AA6A
330
15
100
AcDbEntity
 67
     1
  8
文字
  6
BYBLOCK
 62
     0
100
AcDbText
 10
32.81885892396519
 20
73.01882819621747
 30
0.0
 40
3.2
  1

 50
90.0
 41
0.625
  7
MSｺ_ｼｯｸ
100
AcDbText
  0
TEXT
  5
AA6C
330
15
100
AcDbEntity
 67
     1
  8
文字
  6
BYBLOCK
 62
     0
100
AcDbText
 10
37.25020936743055
 20
73.01882819621747
 30
0.0
 40
3.2
  1

 50
90.0
 41
0.625
  7
MSｺ_ｼｯｸ
100
AcDbText
  0
TEXT
  5
FCA5
330
15
100
AcDbEntity
 67
     1
  8
FRAME020
  6
CONTINUOUS
100
AcDbText
 10
126.6213117262079
 20
29.63926951973459
 30
0.0
 40
2.5
  1

 41
0.625
  7
MSｺ_ｼｯｸ
100
AcDbText
  0
ENDSEC
  0
SECTION
  2
OBJECTS
  0
DICTIONARY
  5
C
330
0
100
AcDbDictionary
  3
ACAD_GROUP
350
D
  3
ACAD_LAYOUT
350
DB2
  3
ACAD_MLINESTYLE
350
1B
  3
ACAD_PLOTSETTINGS
350
DB3
  3
ACAD_PLOTSTYLENAME
350
FB5B
  3
ACADDIM
350
2919D
  3
ACDBHEADERROUNDTRIPXREC
350
2935F
  3
ACDBVARIABLEDICTIONARY
350
106A6
  3
DWGPROPS
350
15EC9
1001
ACAD
1000
TREAT_AS_HARD
1070
     0
  0
DICTIONARY
  5
290CB
330
2
100
AcDbDictionary
280
     1
  3
ACAD_LAYERFILTERS
360
290CC
  3
ACAD_LAYERSTATES
360
290EB
  0
DICTIONARY
  5
EFC6
330
18
100
AcDbDictionary
280
     1
  3
ACAD_LAYOUTSELFREF
360
29381
  0
DICTIONARY
  5
EFC4
330
15
100
AcDbDictionary
280
     1
  3
ACAD_LAYOUTSELFREF
360
29380
  0
DICTIONARY
  5
D
102
{ACAD_REACTORS
330
C
102
}
330
C
100
AcDbDictionary
  3
*A1
350
AC8A
  3
*A10
350
277BB
  3
*A11
350
23D07
  3
*A12
350
277B2
  3
*A13
350
255D7
  3
*A14
350
24D48
  3
*A15
350
255DD
  3
*A16
350
255DC
  3
*A17
350
23CF5
  3
*A18
350
264D8
  3
*A19
350
FB6C
  3
*A2
350
277BA
  3
*A20
350
27467
  3
*A21
350
23C0B
  3
*A22
350
FC9B
  3
*A23
350
106C7
  3
*A24
350
FB6B
  3
*A25
350
26C9A
  3
*A26
350
27111
  3
*A27
350
277A6
  3
*A28
350
27466
  3
*A29
350
23BF9
  3
*A3
350
21518
  3
*A30
350
28A18
  3
*A31
350
106B3
  3
*A32
350
26D0A
  3
*A33
350
FBFF
  3
*A34
350
27686
  3
*A35
350
25B41
  3
*A36
350
28A19
  3
*A37
350
FC91
  3
*A38
350
ACB4
  3
*A39
350
255E0
  3
*A4
350
277AA
  3
*A40
350
ACA1
  3
*A41
350
28A1A
  3
*A42
350
24EF3
  3
*A43
350
ACBD
  3
*A44
350
AC9A
  3
*A45
350
24F9B
  3
*A46
350
28A3E
  3
*A47
350
25ADE
  3
*A48
350
24EF4
  3
*A49
350
23CE3
  3
*A5
350
27462
  3
*A50
350
28A5F
  3
*A51
350
255D6
  3
*A52
350
25ADF
  3
*A53
350
23D2B
  3
*A54
350
28AA1
  3
*A55
350
264D7
  3
*A56
350
FC95
  3
*A57
350
255DA
  3
*A58
350
24D3B
  3
*A59
350
26C9E
  3
*A6
350
27460
  3
*A60
350
255DF
  3
*A61
350
23D19
  3
*A62
350
26F5D
  3
*A63
350
277AE
  3
*A64
350
26A6A
  3
*A65
350
ACA2
  3
*A66
350
277B6
  3
*A67
350
26C96
  3
*A68
350
106C6
  3
*A69
350
255D8
  3
*A7
350
255DB
  3
*A70
350
23D3D
  3
*A71
350
26F5E
  3
*A72
350
FC9A
  3
*A73
350
ACAB
  3
*A74
350
27461
  3
*A75
350
106A5
  3
*A76
350
27464
  3
*A77
350
23D4F
  3
*A78
350
27463
  3
*A79
350
24D3A
  3
*A8
350
27465
  3
*A80
350
24F9C
  3
*A81
350
255D9
  3
*A82
350
255DE
  3
*A83
350
FCB8
  3
*A84
350
26A6B
  3
*A85
350
26CA2
  3
*A86
350
288C8
  3
*A87
350
288D1
  3
*A88
350
288DA
  3
*A89
350
288DB
  3
*A9
350
288DC
1001
ACAD
1000
TREAT_AS_HARD
1070
     0
  0
DICTIONARY
  5
DB2
102
{ACAD_REACTORS
330
C
102
}
330
C
100
AcDbDictionary
1001
ACAD
1000
TREAT_AS_HARD
1070
     0
  0
DICTIONARY
  5
1B
102
{ACAD_REACTORS
330
C
102
}
330
C
100
AcDbDictionary
  3
STANDARD
350
1C
1001
ACAD
1000
TREAT_AS_HARD
1070
     0
  0
DICTIONARY
  5
DB3
102
{ACAD_REACTORS
330
C
102
}
330
C
100
AcDbDictionary
1001
ACAD
1000
TREAT_AS_HARD
1070
     0
  0
ACDBDICTIONARYWDFLT
  5
FB5B
102
{ACAD_REACTORS
330
C
102
}
330
C
100
AcDbDictionary
281
     1
  3
Normal
350
FB5C
100
AcDbDictionaryWithDefault
340
FB5C
  0
XRECORD
  5
2919D
102
{ACAD_REACTORS
330
C
102
}
330
C
100
AcDbXrecord
 90
   990106
  3

 60
     0
 61
     0
 62
     4
 63
     4
 64
     1
 65
     0
 66
     0
 67
     3
 68
     1
 69
     0
 70
     0
 71
     0
 72
     0
 40
0.0
170
     1
340
291B4
  0
DICTIONARY
  5
2935F
102
{ACAD_REACTORS
330
C
102
}
330
C
100
AcDbDictionary
  3
CEPSNTYPE
350
29369
  3
DIMSTYLEDATA
350
2936D
  3
FINGERPRINTGUID
350
2936A
  3
HYPERLINKBASE
350
29362
  3
INSUNITS
350
29368
  3
LAYOUTDICT
350
29364
  3
LWETCUNION
350
29367
  3
PLOTSETDICT
350
29365
  3
PLOTSTYLNAMDICT
350
29366
  3
PSVPSCALE
350
2936C
  3
PUCSBASE
350
29370
  3
PUCSORGBACK
350
29376
  3
PUCSORGBOTTOM
350
29372
  3
PUCSORGFRONT
350
29375
  3
PUCSORGLEFT
350
29373
  3
PUCSORGRIGHT
350
29374
  3
PUCSORGTOP
350
29371
  3
PUCSORTHOREF
350
2936E
  3
PUCSORTHOVIEW
350
2936F
  3
STYLESHEET
350
29363
  3
TSTACKALIGN
350
29360
  3
TSTACKSIZE
350
29361
  3
UCSBASE
350
29379
  3
UCSORGBACK
350
2937F
  3
UCSORGBOTTOM
350
2937B
  3
UCSORGFRONT
350
2937E
  3
UCSORGLEFT
350
2937C
  3
UCSORGRIGHT
350
2937D
  3
UCSORGTOP
350
2937A
  3
UCSORTHOREF
350
29377
  3
UCSORTHOVIEW
350
29378
  3
VERSIONGUID
350
2936B
  0
DICTIONARY
  5
106A6
102
{ACAD_REACTORS
330
C
102
}
330
C
100
AcDbDictionary
  3
SORTENTS
350
106A7
  0
XRECORD
  5
15EC9
102
{ACAD_REACTORS
330
C
102
}
330
C
100
AcDbXrecord
  1
DWGPROPS COOKIE
  2

  3

  4

  6

  7

  8

  9

300
=
301
=
302
=
303
=
304
=
305
=
306
=
307
=
308
=
309
=
 40
12.65185717592592
 41
2451224.660162384
 42
2452395.660827315
  1

 90
        0
  0
DICTIONARY
  5
290CC
102
{ACAD_REACTORS
330
290CB
102
}
330
290CB
100
AcDbDictionary
280
     1
  3
0
360
290CD
  3
11
360
290CE
  3
150_
360
290CF
  3
160_
360
290D0
  3
170_
360
290D1
  3
171_
360
290D2
  3
350_
360
290D3
  3
4
360
290D4
  3
5
360
290D5
  3
7
360
290D6
  3
KISEKI
360
290D7
  0
DICTIONARY
  5
290EB
102
{ACAD_REACTORS
330
290CB
102
}
330
290CB
100
AcDbDictionary
  0
XRECORD
  5
29381
102
{ACAD_REACTORS
330
EFC6
102
}
330
EFC6
100
AcDbXrecord
340
18
  0
XRECORD
  5
29380
102
{ACAD_REACTORS
330
EFC4
102
}
330
EFC4
100
AcDbXrecord
340
15
  0
GROUP
  5
AC8A
102
{ACAD_REACTORS
330
D
102
}
330
D
100
AcDbGroup
300

 70
     1
 71
     1
  0
GROUP
  5
277BB
102
{ACAD_REACTORS
330
D
102
}
330
D
100
AcDbGroup
300

 70
     1
 71
     1
  0
GROUP
  5
23D07
102
{ACAD_REACTORS
330
D
102
}
330
D
100
AcDbGroup
300

 70
     1
 71
     1
  0
GROUP
  5
277B2
102
{ACAD_REACTORS
330
D
102
}
330
D
100
AcDbGroup
300

 70
     1
 71
     1
  0
GROUP
  5
255D7
102
{ACAD_REACTORS
330
D
102
}
330
D
100
AcDbGroup
300

 70
     1
 71
     1
  0
GROUP
  5
24D48
102
{ACAD_REACTORS
330
D
102
}
330
D
100
AcDbGroup
300

 70
     1
 71
     1
  0
GROUP
  5
255DD
102
{ACAD_REACTORS
330
D
102
}
330
D
100
AcDbGroup
300

 70
     1
 71
     1
  0
GROUP
  5
255DC
102
{ACAD_REACTORS
330
D
102
}
330
D
100
AcDbGroup
300

 70
     1
 71
     1
  0
GROUP
  5
23CF5
102
{ACAD_REACTORS
330
D
102
}
330
D
100
AcDbGroup
300

 70
     1
 71
     1
  0
GROUP
  5
264D8
102
{ACAD_REACTORS
330
D
102
}
330
D
100
AcDbGroup
300

 70
     1
 71
     1
  0
GROUP
  5
FB6C
102
{ACAD_REACTORS
330
D
102
}
330
D
100
AcDbGroup
300

 70
     1
 71
     1
  0
GROUP
  5
277BA
102
{ACAD_REACTORS
330
D
102
}
330
D
100
AcDbGroup
300

 70
     1
 71
     1
  0
GROUP
  5
27467
102
{ACAD_REACTORS
330
D
102
}
330
D
100
AcDbGroup
300

 70
     1
 71
     1
  0
GROUP
  5
23C0B
102
{ACAD_REACTORS
330
D
102
}
330
D
100
AcDbGroup
300

 70
     1
 71
     1
  0
GROUP
  5
FC9B
102
{ACAD_REACTORS
330
D
102
}
330
D
100
AcDbGroup
300

 70
     1
 71
     1
  0
GROUP
  5
106C7
102
{ACAD_REACTORS
330
D
102
}
330
D
100
AcDbGroup
300

 70
     1
 71
     1
  0
GROUP
  5
FB6B
102
{ACAD_REACTORS
330
D
102
}
330
D
100
AcDbGroup
300

 70
     1
 71
     1
  0
GROUP
  5
26C9A
102
{ACAD_REACTORS
330
D
102
}
330
D
100
AcDbGroup
300

 70
     1
 71
     1
  0
GROUP
  5
27111
102
{ACAD_REACTORS
330
D
102
}
330
D
100
AcDbGroup
300

 70
     1
 71
     1
  0
GROUP
  5
277A6
102
{ACAD_REACTORS
330
D
102
}
330
D
100
AcDbGroup
300

 70
     1
 71
     1
  0
GROUP
  5
27466
102
{ACAD_REACTORS
330
D
102
}
330
D
100
AcDbGroup
300

 70
     1
 71
     1
  0
GROUP
  5
23BF9
102
{ACAD_REACTORS
330
D
102
}
330
D
100
AcDbGroup
300

 70
     1
 71
     1
  0
GROUP
  5
21518
102
{ACAD_REACTORS
330
D
102
}
330
D
100
AcDbGroup
300

 70
     1
 71
     1
  0
GROUP
  5
28A18
102
{ACAD_REACTORS
330
D
102
}
330
D
100
AcDbGroup
300

 70
     1
 71
     1
  0
GROUP
  5
106B3
102
{ACAD_REACTORS
330
D
102
}
330
D
100
AcDbGroup
300

 70
     1
 71
     1
  0
GROUP
  5
26D0A
102
{ACAD_REACTORS
330
D
102
}
330
D
100
AcDbGroup
300

 70
     1
 71
     1
  0
GROUP
  5
FBFF
102
{ACAD_REACTORS
330
D
102
}
330
D
100
AcDbGroup
300

 70
     1
 71
     1
  0
GROUP
  5
27686
102
{ACAD_REACTORS
330
D
102
}
330
D
100
AcDbGroup
300

 70
     1
 71
     1
  0
GROUP
  5
25B41
102
{ACAD_REACTORS
330
D
102
}
330
D
100
AcDbGroup
300

 70
     1
 71
     1
  0
GROUP
  5
28A19
102
{ACAD_REACTORS
330
D
102
}
330
D
100
AcDbGroup
300

 70
     1
 71
     1
  0
GROUP
  5
FC91
102
{ACAD_REACTORS
330
D
102
}
330
D
100
AcDbGroup
300

 70
     1
 71
     1
  0
GROUP
  5
ACB4
102
{ACAD_REACTORS
330
D
102
}
330
D
100
AcDbGroup
300

 70
     1
 71
     1
  0
GROUP
  5
255E0
102
{ACAD_REACTORS
330
D
102
}
330
D
100
AcDbGroup
300

 70
     1
 71
     1
  0
GROUP
  5
277AA
102
{ACAD_REACTORS
330
D
102
}
330
D
100
AcDbGroup
300

 70
     1
 71
     1
  0
GROUP
  5
ACA1
102
{ACAD_REACTORS
330
D
102
}
330
D
100
AcDbGroup
300

 70
     1
 71
     1
  0
GROUP
  5
28A1A
102
{ACAD_REACTORS
330
D
102
}
330
D
100
AcDbGroup
300

 70
     1
 71
     1
  0
GROUP
  5
24EF3
102
{ACAD_REACTORS
330
D
102
}
330
D
100
AcDbGroup
300

 70
     1
 71
     1
  0
GROUP
  5
ACBD
102
{ACAD_REACTORS
330
D
102
}
330
D
100
AcDbGroup
300

 70
     1
 71
     1
  0
GROUP
  5
AC9A
102
{ACAD_REACTORS
330
D
102
}
330
D
100
AcDbGroup
300

 70
     1
 71
     1
  0
GROUP
  5
24F9B
102
{ACAD_REACTORS
330
D
102
}
330
D
100
AcDbGroup
300

 70
     1
 71
     1
  0
GROUP
  5
28A3E
102
{ACAD_REACTORS
330
D
102
}
330
D
100
AcDbGroup
300

 70
     1
 71
     1
340
28A1B
340
28A1C
340
28A1D
340
28A1E
340
28A1F
340
28A20
340
28A21
340
28A22
340
28A23
340
28A24
340
28A25
340
28A26
340
28A27
340
28A28
340
28A29
340
28A2A
340
28A2B
340
28A2C
340
28A2D
340
28A2E
340
28A2F
340
28A30
340
28A31
340
28A32
340
28A33
340
28A34
340
28A35
340
28A36
340
28A37
340
28A38
340
28A39
340
28A3A
340
28A3B
340
28A3C
340
28A3D
  0
GROUP
  5
25ADE
102
{ACAD_REACTORS
330
D
102
}
330
D
100
AcDbGroup
300

 70
     1
 71
     1
  0
GROUP
  5
24EF4
102
{ACAD_REACTORS
330
D
102
}
330
D
100
AcDbGroup
300

 70
     1
 71
     1
  0
GROUP
  5
23CE3
102
{ACAD_REACTORS
330
D
102
}
330
D
100
AcDbGroup
300

 70
     1
 71
     1
  0
GROUP
  5
27462
102
{ACAD_REACTORS
330
D
102
}
330
D
100
AcDbGroup
300

 70
     1
 71
     1
  0
GROUP
  5
28A5F
102
{ACAD_REACTORS
330
D
102
}
330
D
100
AcDbGroup
300

 70
     1
 71
     1
340
28A3F
340
28A40
340
28A41
340
28A42
340
28A43
340
28A44
340
28A45
340
28A46
340
28A47
340
28A48
340
28A49
340
28A4A
340
28A4B
340
28A4C
340
28A4D
340
28A4E
340
28A4F
340
28A50
340
28A51
340
28A52
340
28A53
340
28A54
340
28A55
340
28A56
340
28A57
340
28A58
340
28A59
340
28A5A
340
28A5B
340
28A5C
340
28A5D
340
28A5E
  0
GROUP
  5
255D6
102
{ACAD_REACTORS
330
D
102
}
330
D
100
AcDbGroup
300

 70
     1
 71
     1
  0
GROUP
  5
25ADF
102
{ACAD_REACTORS
330
D
102
}
330
D
100
AcDbGroup
300

 70
     1
 71
     1
  0
GROUP
  5
23D2B
102
{ACAD_REACTORS
330
D
102
}
330
D
100
AcDbGroup
300

 70
     1
 71
     1
  0
GROUP
  5
28AA1
102
{ACAD_REACTORS
330
D
102
}
330
D
100
AcDbGroup
300

 70
     1
 71
     1
340
28A93
340
28A94
340
28A95
340
28A96
340
28A97
340
28A98
340
28A99
340
28A9A
340
28A9B
340
28A9C
340
28A9D
340
28A9E
340
28A9F
340
28AA0
  0
GROUP
  5
264D7
102
{ACAD_REACTORS
330
D
102
}
330
D
100
AcDbGroup
300

 70
     1
 71
     1
  0
GROUP
  5
FC95
102
{ACAD_REACTORS
330
D
102
}
330
D
100
AcDbGroup
300

 70
     1
 71
     1
  0
GROUP
  5
255DA
102
{ACAD_REACTORS
330
D
102
}
330
D
100
AcDbGroup
300

 70
     1
 71
     1
  0
GROUP
  5
24D3B
102
{ACAD_REACTORS
330
D
102
}
330
D
100
AcDbGroup
300

 70
     1
 71
     1
  0
GROUP
  5
26C9E
102
{ACAD_REACTORS
330
D
102
}
330
D
100
AcDbGroup
300

 70
     1
 71
     1
  0
GROUP
  5
27460
102
{ACAD_REACTORS
330
D
102
}
330
D
100
AcDbGroup
300

 70
     1
 71
     1
  0
GROUP
  5
255DF
102
{ACAD_REACTORS
330
D
102
}
330
D
100
AcDbGroup
300

 70
     1
 71
     1
  0
GROUP
  5
23D19
102
{ACAD_REACTORS
330
D
102
}
330
D
100
AcDbGroup
300

 70
     1
 71
     1
  0
GROUP
  5
26F5D
102
{ACAD_REACTORS
330
D
102
}
330
D
100
AcDbGroup
300

 70
     1
 71
     1
  0
GROUP
  5
277AE
102
{ACAD_REACTORS
330
D
102
}
330
D
100
AcDbGroup
300

 70
     1
 71
     1
  0
GROUP
  5
26A6A
102
{ACAD_REACTORS
330
D
102
}
330
D
100
AcDbGroup
300

 70
     1
 71
     1
  0
GROUP
  5
ACA2
102
{ACAD_REACTORS
330
D
102
}
330
D
100
AcDbGroup
300

 70
     1
 71
     1
  0
GROUP
  5
277B6
102
{ACAD_REACTORS
330
D
102
}
330
D
100
AcDbGroup
300

 70
     1
 71
     1
  0
GROUP
  5
26C96
102
{ACAD_REACTORS
330
D
102
}
330
D
100
AcDbGroup
300

 70
     1
 71
     1
  0
GROUP
  5
106C6
102
{ACAD_REACTORS
330
D
102
}
330
D
100
AcDbGroup
300

 70
     1
 71
     1
  0
GROUP
  5
255D8
102
{ACAD_REACTORS
330
D
102
}
330
D
100
AcDbGroup
300

 70
     1
 71
     1
  0
GROUP
  5
255DB
102
{ACAD_REACTORS
330
D
102
}
330
D
100
AcDbGroup
300

 70
     1
 71
     1
  0
GROUP
  5
23D3D
102
{ACAD_REACTORS
330
D
102
}
330
D
100
AcDbGroup
300

 70
     1
 71
     1
  0
GROUP
  5
26F5E
102
{ACAD_REACTORS
330
D
102
}
330
D
100
AcDbGroup
300

 70
     1
 71
     1
  0
GROUP
  5
FC9A
102
{ACAD_REACTORS
330
D
102
}
330
D
100
AcDbGroup
300

 70
     1
 71
     1
  0
GROUP
  5
ACAB
102
{ACAD_REACTORS
330
D
102
}
330
D
100
AcDbGroup
300

 70
     1
 71
     1
  0
GROUP
  5
27461
102
{ACAD_REACTORS
330
D
102
}
330
D
100
AcDbGroup
300

 70
     1
 71
     1
  0
GROUP
  5
106A5
102
{ACAD_REACTORS
330
D
102
}
330
D
100
AcDbGroup
300

 70
     1
 71
     1
  0
GROUP
  5
27464
102
{ACAD_REACTORS
330
D
102
}
330
D
100
AcDbGroup
300

 70
     1
 71
     1
  0
GROUP
  5
23D4F
102
{ACAD_REACTORS
330
D
102
}
330
D
100
AcDbGroup
300

 70
     1
 71
     1
  0
GROUP
  5
27463
102
{ACAD_REACTORS
330
D
102
}
330
D
100
AcDbGroup
300

 70
     1
 71
     1
  0
GROUP
  5
24D3A
102
{ACAD_REACTORS
330
D
102
}
330
D
100
AcDbGroup
300

 70
     1
 71
     1
  0
GROUP
  5
27465
102
{ACAD_REACTORS
330
D
102
}
330
D
100
AcDbGroup
300

 70
     1
 71
     1
  0
GROUP
  5
24F9C
102
{ACAD_REACTORS
330
D
102
}
330
D
100
AcDbGroup
300

 70
     1
 71
     1
  0
GROUP
  5
255D9
102
{ACAD_REACTORS
330
D
102
}
330
D
100
AcDbGroup
300

 70
     1
 71
     1
  0
GROUP
  5
255DE
102
{ACAD_REACTORS
330
D
102
}
330
D
100
AcDbGroup
300

 70
     1
 71
     1
  0
GROUP
  5
FCB8
102
{ACAD_REACTORS
330
D
102
}
330
D
100
AcDbGroup
300

 70
     1
 71
     1
  0
GROUP
  5
26A6B
102
{ACAD_REACTORS
330
D
102
}
330
D
100
AcDbGroup
300

 70
     1
 71
     1
  0
GROUP
  5
26CA2
102
{ACAD_REACTORS
330
D
102
}
330
D
100
AcDbGroup
300

 70
     1
 71
     1
  0
GROUP
  5
288C8
102
{ACAD_REACTORS
330
D
102
}
330
D
100
AcDbGroup
300

 70
     1
 71
     1
340
288C6
340
288C4
340
288C2
340
288C0
340
288C7
340
288C5
340
288C3
340
288C1
  0
GROUP
  5
288D1
102
{ACAD_REACTORS
330
D
102
}
330
D
100
AcDbGroup
300

 70
     1
 71
     1
340
288C9
340
288CA
340
288CB
340
288CC
340
288CD
340
288CE
340
288CF
340
288D0
  0
GROUP
  5
288DA
102
{ACAD_REACTORS
330
D
102
}
330
D
100
AcDbGroup
300

 70
     1
 71
     1
340
288D2
340
288D3
340
288D4
340
288D5
340
288D6
340
288D7
340
288D8
340
288D9
  0
GROUP
  5
288DB
102
{ACAD_REACTORS
330
D
102
}
330
D
100
AcDbGroup
300

 70
     1
 71
     1
  0
GROUP
  5
288DC
102
{ACAD_REACTORS
330
D
102
}
330
D
100
AcDbGroup
300

 70
     1
 71
     1
  0
MLINESTYLE
  5
1C
102
{ACAD_REACTORS
330
1B
102
}
330
1B
100
AcDbMlineStyle
  2
STANDARD
 70
     0
  3

 62
   256
 51
90.0
 52
90.0
 71
     2
 49
0.5
 62
   256
  6
BYLAYER
 49
-0.5
 62
   256
  6
BYLAYER
  0
ACDBPLACEHOLDER
  5
FB5C
102
{ACAD_REACTORS
330
FB5B
102
}
330
FB5B
100
AcDbPlaceHolder
280
     0
  0
XRECORD
  5
29369
102
{ACAD_REACTORS
330
2935F
102
}
330
2935F
100
AcDbXrecord
 90
        0
  0
XRECORD
  5
2936D
102
{ACAD_REACTORS
330
2935F
102
}
330
2935F
100
AcDbXrecord
1000
DSTYLE
1002
{
1070
    79
 70
     2
1070
   179
 70
     2
1070
   341
340
153E2
1070
   342
340
1215D
1070
   343
340
1215D
1070
   344
340
15351
1070
   371
 70
    13
1070
   372
 70
    13
1002
}
  0
XRECORD
  5
2936A
102
{ACAD_REACTORS
330
2935F
102
}
330
2935F
100
AcDbXrecord
  1
{D14EE3FF-941A-415A-9907-344E0A80D794}
  0
XRECORD
  5
29362
102
{ACAD_REACTORS
330
2935F
102
}
330
2935F
100
AcDbXrecord
  1

  0
XRECORD
  5
29368
102
{ACAD_REACTORS
330
2935F
102
}
330
2935F
100
AcDbXrecord
 90
        0
  0
XRECORD
  5
29364
102
{ACAD_REACTORS
330
2935F
102
}
330
2935F
100
AcDbXrecord
340
DB2
  0
XRECORD
  5
29367
102
{ACAD_REACTORS
330
2935F
102
}
330
2935F
100
AcDbXrecord
 90
    10269
  0
XRECORD
  5
29365
102
{ACAD_REACTORS
330
2935F
102
}
330
2935F
100
AcDbXrecord
340
DB3
  0
XRECORD
  5
29366
102
{ACAD_REACTORS
330
2935F
102
}
330
2935F
100
AcDbXrecord
340
FB5B
  0
XRECORD
  5
2936C
102
{ACAD_REACTORS
330
2935F
102
}
330
2935F
100
AcDbXrecord
 40
0.0
  0
XRECORD
  5
29370
102
{ACAD_REACTORS
330
2935F
102
}
330
2935F
100
AcDbXrecord
340
0
  0
XRECORD
  5
29376
102
{ACAD_REACTORS
330
2935F
102
}
330
2935F
100
AcDbXrecord
 10
0.0
 20
0.0
 30
0.0
  0
XRECORD
  5
29372
102
{ACAD_REACTORS
330
2935F
102
}
330
2935F
100
AcDbXrecord
 10
0.0
 20
0.0
 30
0.0
  0
XRECORD
  5
29375
102
{ACAD_REACTORS
330
2935F
102
}
330
2935F
100
AcDbXrecord
 10
0.0
 20
0.0
 30
0.0
  0
XRECORD
  5
29373
102
{ACAD_REACTORS
330
2935F
102
}
330
2935F
100
AcDbXrecord
 10
0.0
 20
0.0
 30
0.0
  0
XRECORD
  5
29374
102
{ACAD_REACTORS
330
2935F
102
}
330
2935F
100
AcDbXrecord
 10
0.0
 20
0.0
 30
0.0
  0
XRECORD
  5
29371
102
{ACAD_REACTORS
330
2935F
102
}
330
2935F
100
AcDbXrecord
 10
0.0
 20
0.0
 30
0.0
  0
XRECORD
  5
2936E
102
{ACAD_REACTORS
330
2935F
102
}
330
2935F
100
AcDbXrecord
340
0
  0
XRECORD
  5
2936F
102
{ACAD_REACTORS
330
2935F
102
}
330
2935F
100
AcDbXrecord
 70
     0
  0
XRECORD
  5
29363
102
{ACAD_REACTORS
330
2935F
102
}
330
2935F
100
AcDbXrecord
  1

  0
XRECORD
  5
29360
102
{ACAD_REACTORS
330
2935F
102
}
330
2935F
100
AcDbXrecord
 90
        1
  0
XRECORD
  5
29361
102
{ACAD_REACTORS
330
2935F
102
}
330
2935F
100
AcDbXrecord
 90
       70
  0
XRECORD
  5
29379
102
{ACAD_REACTORS
330
2935F
102
}
330
2935F
100
AcDbXrecord
340
0
  0
XRECORD
  5
2937F
102
{ACAD_REACTORS
330
2935F
102
}
330
2935F
100
AcDbXrecord
 10
0.0
 20
0.0
 30
0.0
  0
XRECORD
  5
2937B
102
{ACAD_REACTORS
330
2935F
102
}
330
2935F
100
AcDbXrecord
 10
0.0
 20
0.0
 30
0.0
  0
XRECORD
  5
2937E
102
{ACAD_REACTORS
330
2935F
102
}
330
2935F
100
AcDbXrecord
 10
0.0
 20
0.0
 30
0.0
  0
XRECORD
  5
2937C
102
{ACAD_REACTORS
330
2935F
102
}
330
2935F
100
AcDbXrecord
 10
0.0
 20
0.0
 30
0.0
  0
XRECORD
  5
2937D
102
{ACAD_REACTORS
330
2935F
102
}
330
2935F
100
AcDbXrecord
 10
0.0
 20
0.0
 30
0.0
  0
XRECORD
  5
2937A
102
{ACAD_REACTORS
330
2935F
102
}
330
2935F
100
AcDbXrecord
 10
0.0
 20
0.0
 30
0.0
  0
XRECORD
  5
29377
102
{ACAD_REACTORS
330
2935F
102
}
330
2935F
100
AcDbXrecord
340
0
  0
XRECORD
  5
29378
102
{ACAD_REACTORS
330
2935F
102
}
330
2935F
100
AcDbXrecord
 70
     0
  0
XRECORD
  5
2936B
102
{ACAD_REACTORS
330
2935F
102
}
330
2935F
100
AcDbXrecord
  1
{AE8F5706-8EF3-4F43-BA9B-274EE80C94E1}
  0
DICTIONARYVAR
  5
106A7
102
{ACAD_REACTORS
330
106A6
102
}
330
106A6
100
DictionaryVariables
280
     0
  1
96
  0
XRECORD
  5
290CD
102
{ACAD_REACTORS
330
290CC
102
}
330
290CC
100
AcDbXrecord
  1
0
  1
*0
  1
*
  1
*
 70
     0
  1
*
  1
*
  0
XRECORD
  5
290CE
102
{ACAD_REACTORS
330
290CC
102
}
330
290CC
100
AcDbXrecord
  1
11
  1
*11
  1
*
  1
*
 70
     0
  1
*
  1
*
  0
XRECORD
  5
290CF
102
{ACAD_REACTORS
330
290CC
102
}
330
290CC
100
AcDbXrecord
  1
150_
  1
150_*
  1
*
  1
*
 70
     0
  1
*
  1
*
  0
XRECORD
  5
290D0
102
{ACAD_REACTORS
330
290CC
102
}
330
290CC
100
AcDbXrecord
  1
160_
  1
160_*
  1
*
  1
*
 70
     0
  1
*
  1
*
  0
XRECORD
  5
290D1
102
{ACAD_REACTORS
330
290CC
102
}
330
290CC
100
AcDbXrecord
  1
170_
  1
170_*
  1
*
  1
*
 70
     0
  1
*
  1
*
  0
XRECORD
  5
290D2
102
{ACAD_REACTORS
330
290CC
102
}
330
290CC
100
AcDbXrecord
  1
171_
  1
171_*
  1
*
  1
*
 70
     0
  1
*
  1
*
  0
XRECORD
  5
290D3
102
{ACAD_REACTORS
330
290CC
102
}
330
290CC
100
AcDbXrecord
  1
350_
  1
350_*
  1
*
  1
*
 70
     0
  1
*
  1
*
  0
XRECORD
  5
290D4
102
{ACAD_REACTORS
330
290CC
102
}
330
290CC
100
AcDbXrecord
  1
4
  1
*4
  1
*
  1
*
 70
     0
  1
*
  1
*
  0
XRECORD
  5
290D5
102
{ACAD_REACTORS
330
290CC
102
}
330
290CC
100
AcDbXrecord
  1
5
  1
*5
  1
*
  1
*
 70
     0
  1
*
  1
*
  0
XRECORD
  5
290D6
102
{ACAD_REACTORS
330
290CC
102
}
330
290CC
100
AcDbXrecord
  1
7
  1
*7
  1
*
  1
*
 70
     0
  1
*
  1
*
  0
XRECORD
  5
290D7
102
{ACAD_REACTORS
330
290CC
102
}
330
290CC
100
AcDbXrecord
  1
kiseki
  1
kiseki*
  1
*
  1
*
 70
     0
  1
*
  1
*
  0
ENDSEC
  0
EOF
