  0
SECTION
  2
HEADER
  9
$ACADVER
  1
AC1015
  9
$ACADMAINTVER
 70
    10
  9
$DWGCODEPAGE
  3
ANSI_932
  9
$INSBASE
 10
0.0
 20
0.0
 30
0.0
  9
$EXTMIN
 10
-426.5834870569501
 20
231.8131349785474
 30
0.0
  9
$EXTMAX
 10
1016.10328673854
 20
1240.908492925171
 30
0.0
  9
$LIMMIN
 10
0.0
 20
0.0
  9
$LIMMAX
 10
420.0
 20
297.0
  9
$ORTHOMODE
 70
     1
  9
$REGENMODE
 70
     1
  9
$FILLMODE
 70
     1
  9
$QTEXTMODE
 70
     0
  9
$MIRRTEXT
 70
     0
  9
$LTSCALE
 40
20.0
  9
$ATTMODE
 70
     1
  9
$TEXTSIZE
 40
2.5
  9
$TRACEWID
 40
1.0
  9
$TEXTSTYLE
  7
STANDARD
  9
$CLAYER
  8
寸法線
  9
$CELTYPE
  6
BYLAYER
  9
$CECOLOR
 62
   256
  9
$CELTSCALE
 40
1.0
  9
$DISPSILH
 70
     0
  9
$DIMSCALE
 40
2.0
  9
$DIMASZ
 40
3.5
  9
$DIMEXO
 40
1.0
  9
$DIMDLI
 40
6.5
  9
$DIMRND
 40
0.005
  9
$DIMDLE
 40
0.0
  9
$DIMEXE
 40
1.0
  9
$DIMTP
 40
0.0
  9
$DIMTM
 40
0.0
  9
$DIMTXT
 40
3.0
  9
$DIMCEN
 40
2.5
  9
$DIMTSZ
 40
0.0
  9
$DIMTOL
 70
     0
  9
$DIMLIM
 70
     0
  9
$DIMTIH
 70
     0
  9
$DIMTOH
 70
     0
  9
$DIMSE1
 70
     0
  9
$DIMSE2
 70
     0
  9
$DIMTAD
 70
     1
  9
$DIMZIN
 70
     9
  9
$DIMBLK
  1
OPEN30
  9
$DIMASO
 70
     1
  9
$DIMSHO
 70
     1
  9
$DIMPOST
  1

  9
$DIMAPOST
  1

  9
$DIMALT
 70
     0
  9
$DIMALTD
 70
     4
  9
$DIMALTF
 40
0.0394
  9
$DIMLFAC
 40
1.0
  9
$DIMTOFL
 70
     1
  9
$DIMTVP
 40
0.0
  9
$DIMTIX
 70
     0
  9
$DIMSOXD
 70
     0
  9
$DIMSAH
 70
     0
  9
$DIMBLK1
  1

  9
$DIMBLK2
  1

  9
$DIMSTYLE
  2
STD_M_
  9
$DIMCLRD
 70
     4
  9
$DIMCLRE
 70
     4
  9
$DIMCLRT
 70
   256
  9
$DIMTFAC
 40
1.0
  9
$DIMGAP
 40
0.75
  9
$DIMJUST
 70
     0
  9
$DIMSD1
 70
     0
  9
$DIMSD2
 70
     0
  9
$DIMTOLJ
 70
     1
  9
$DIMTZIN
 70
     9
  9
$DIMALTZ
 70
     0
  9
$DIMALTTZ
 70
     0
  9
$DIMUPT
 70
     0
  9
$DIMDEC
 70
     2
  9
$DIMTDEC
 70
     2
  9
$DIMALTU
 70
     8
  9
$DIMALTTD
 70
     4
  9
$DIMTXSTY
  7
STANDARD
  9
$DIMAUNIT
 70
     0
  9
$DIMADEC
 70
     2
  9
$DIMALTRND
 40
0.0
  9
$DIMAZIN
 70
     2
  9
$DIMDSEP
 70
    46
  9
$DIMATFIT
 70
     3
  9
$DIMFRAC
 70
     0
  9
$DIMLDRBLK
  1
OPEN30
  9
$DIMLUNIT
 70
     2
  9
$DIMLWD
 70
    13
  9
$DIMLWE
 70
    13
  9
$DIMTMOVE
 70
     0
  9
$LUNITS
 70
     2
  9
$LUPREC
 70
     4
  9
$SKETCHINC
 40
1.0
  9
$FILLETRAD
 40
50.0
  9
$AUNITS
 70
     0
  9
$AUPREC
 70
     0
  9
$MENU
  1
.
  9
$ELEVATION
 40
0.0
  9
$PELEVATION
 40
0.0
  9
$THICKNESS
 40
0.0
  9
$LIMCHECK
 70
     0
  9
$CHAMFERA
 40
1.0
  9
$CHAMFERB
 40
1.0
  9
$CHAMFERC
 40
20.0
  9
$CHAMFERD
 40
0.0
  9
$SKPOLY
 70
     0
  9
$TDCREATE
 40
2451224.660162384
  9
$TDUCREATE
 40
2451224.285162384
  9
$TDUPDATE
 40
2455778.432352245
  9
$TDUUPDATE
 40
2455778.057352245
  9
$TDINDWG
 40
14.3449575579
  9
$TDUSRTIMER
 40
14.3449575579
  9
$USRTIMER
 70
     1
  9
$ANGBASE
 50
0.0
  9
$ANGDIR
 70
     0
  9
$PDMODE
 70
     0
  9
$PDSIZE
 40
0.0
  9
$PLINEWID
 40
0.0
  9
$SPLFRAME
 70
     0
  9
$SPLINETYPE
 70
     6
  9
$SPLINESEGS
 70
     8
  9
$HANDSEED
  5
28933
  9
$SURFTAB1
 70
     6
  9
$SURFTAB2
 70
     6
  9
$SURFTYPE
 70
     6
  9
$SURFU
 70
     6
  9
$SURFV
 70
     6
  9
$UCSBASE
  2

  9
$UCSNAME
  2

  9
$UCSORG
 10
0.0
 20
0.0
 30
0.0
  9
$UCSXDIR
 10
1.0
 20
0.0
 30
0.0
  9
$UCSYDIR
 10
0.0
 20
1.0
 30
0.0
  9
$UCSORTHOREF
  2

  9
$UCSORTHOVIEW
 70
     0
  9
$UCSORGTOP
 10
0.0
 20
0.0
 30
0.0
  9
$UCSORGBOTTOM
 10
0.0
 20
0.0
 30
0.0
  9
$UCSORGLEFT
 10
0.0
 20
0.0
 30
0.0
  9
$UCSORGRIGHT
 10
0.0
 20
0.0
 30
0.0
  9
$UCSORGFRONT
 10
0.0
 20
0.0
 30
0.0
  9
$UCSORGBACK
 10
0.0
 20
0.0
 30
0.0
  9
$PUCSBASE
  2

  9
$PUCSNAME
  2

  9
$PUCSORG
 10
0.0
 20
0.0
 30
0.0
  9
$PUCSXDIR
 10
1.0
 20
0.0
 30
0.0
  9
$PUCSYDIR
 10
0.0
 20
1.0
 30
0.0
  9
$PUCSORTHOREF
  2

  9
$PUCSORTHOVIEW
 70
     0
  9
$PUCSORGTOP
 10
0.0
 20
0.0
 30
0.0
  9
$PUCSORGBOTTOM
 10
0.0
 20
0.0
 30
0.0
  9
$PUCSORGLEFT
 10
0.0
 20
0.0
 30
0.0
  9
$PUCSORGRIGHT
 10
0.0
 20
0.0
 30
0.0
  9
$PUCSORGFRONT
 10
0.0
 20
0.0
 30
0.0
  9
$PUCSORGBACK
 10
0.0
 20
0.0
 30
0.0
  9
$USERI1
 70
     0
  9
$USERI2
 70
     0
  9
$USERI3
 70
     0
  9
$USERI4
 70
     0
  9
$USERI5
 70
     0
  9
$USERR1
 40
0.0
  9
$USERR2
 40
0.0
  9
$USERR3
 40
0.0
  9
$USERR4
 40
0.0
  9
$USERR5
 40
0.0
  9
$WORLDVIEW
 70
     1
  9
$SHADEDGE
 70
     3
  9
$SHADEDIF
 70
    70
  9
$TILEMODE
 70
     0
  9
$MAXACTVP
 70
    48
  9
$PINSBASE
 10
0.0
 20
0.0
 30
0.0
  9
$PLIMCHECK
 70
     0
  9
$PEXTMIN
 10
-0.0319049928184541
 20
3.008592520007141
 30
-0.0015258207003583
  9
$PEXTMAX
 10
400.0304639173505
 20
285.0248584964831
 30
0.0000000349246037
  9
$PLIMMIN
 10
-8.388498607978489
 20
-5.348002451947166
  9
$PLIMMAX
 10
414.0486818306733
 20
293.3814521116431
  9
$UNITMODE
 70
     0
  9
$VISRETAIN
 70
     1
  9
$PLINEGEN
 70
     0
  9
$PSLTSCALE
 70
     0
  9
$TREEDEPTH
 70
  3020
  9
$CMLSTYLE
  2
STANDARD
  9
$CMLJUST
 70
     0
  9
$CMLSCALE
 40
20.0
  9
$PROXYGRAPHICS
 70
     1
  9
$MEASUREMENT
 70
     0
  9
$CELWEIGHT
370
    -1
  9
$ENDCAPS
280
     0
  9
$JOINSTYLE
280
     0
  9
$LWDISPLAY
290
     1
  9
$INSUNITS
 70
     0
  9
$HYPERLINKBASE
  1

  9
$STYLESHEET
  1

  9
$XEDIT
290
     1
  9
$CEPSNTYPE
380
     0
  9
$PSTYLEMODE
290
     1
  9
$FINGERPRINTGUID
  2
{D14EE3FF-941A-415A-9907-344E0A80D794}
  9
$VERSIONGUID
  2
{0AE18782-C6E3-477A-A91C-D6C9EE39A76A}
  9
$EXTNAMES
290
     1
  9
$PSVPSCALE
 40
0.0
  9
$OLESTARTUP
290
     0
  0
ENDSEC
  0
SECTION
  2
CLASSES
  0
CLASS
  1
HATCH
  2
AcDbHatch
  3
AutoCAD 2000
 90
    32768
280
     0
281
     1
  0
CLASS
  1
LWPOLYLINE
  2
AcDbPolyline
  3
AutoCAD 2000
 90
    32768
280
     0
281
     1
  0
CLASS
  1
ACDBDICTIONARYWDFLT
  2
AcDbDictionaryWithDefault
  3
AutoCAD 2000
 90
        0
280
     0
281
     0
  0
CLASS
  1
ACDBPLACEHOLDER
  2
AcDbPlaceHolder
  3
AutoCAD 2000
 90
        0
280
     0
281
     0
  0
CLASS
  1
LAYOUT
  2
AcDbLayout
  3
AutoCAD 2000
 90
        0
280
     0
281
     0
  0
CLASS
  1
LONG_TRANSACTION
  2
AcDbLongTransaction
  3
AutoCAD 2000
 90
    32768
280
     0
281
     0
  0
CLASS
  1
LWPOLYLINE
  2
AcDbPolyline
  3
AutoCAD 2000
 90
    32768
280
     0
281
     1
  0
CLASS
  1
HATCH
  2
AcDbHatch
  3
AutoCAD 2000
 90
    32768
280
     0
281
     1
  0
CLASS
  1
XRECORD
  2
AcDbXrecord
  3
AutoCAD 2000
 90
    32768
280
     0
281
     0
  0
CLASS
  1
DICTIONARYVAR
  2
AcDbDictionaryVar
  3
AutoCAD 2000
 90
        0
280
     0
281
     0
  0
CLASS
  1
LONG_TRANSACTION
  2
AcDbLongTransaction
  3
AutoCAD 2000
 90
    32768
280
     0
281
     0
  0
CLASS
  1
LWPOLYLINE
  2
AcDbPolyline
  3
AutoCAD 2000
 90
    32768
280
     0
281
     1
  0
CLASS
  1
HATCH
  2
AcDbHatch
  3
AutoCAD 2000
 90
    32768
280
     0
281
     1
  0
CLASS
  1
XRECORD
  2
AcDbXrecord
  3
AutoCAD 2000
 90
    32768
280
     0
281
     0
  0
ENDSEC
  0
SECTION
  2
TABLES
  0
TABLE
  2
VPORT
  5
8
330
0
100
AcDbSymbolTable
 70
     1
  0
VPORT
  5
28903
330
8
100
AcDbSymbolTableRecord
100
AcDbViewportTableRecord
  2
*ACTIVE
 70
     0
 10
0.0
 20
0.0
 11
1.0
 21
1.0
 12
197.1037676892743
 22
743.0179609577469
 13
0.0
 23
0.0
 14
10.0
 24
10.0
 15
10.0
 25
10.0
 16
0.0
 26
0.0
 36
1.0
 17
0.0
 27
0.0
 37
0.0
 40
1003.509143051137
 41
1.527918781725888
 42
50.0
 43
0.0
 44
0.0
 50
0.0
 51
0.0
 71
     0
 72
   100
 73
     1
 74
     0
 75
     0
 76
     0
 77
     0
 78
     0
281
     0
 65
     1
110
0.0
120
0.0
130
0.0
111
1.0
121
0.0
131
0.0
112
0.0
122
1.0
132
0.0
 79
     0
146
0.0
  0
ENDTAB
  0
TABLE
  2
LTYPE
  5
5
330
0
100
AcDbSymbolTable
 70
     7
  0
LTYPE
  5
12
330
5
100
AcDbSymbolTableRecord
100
AcDbLinetypeTableRecord
  2
BYBLOCK
 70
     0
  3

 72
    65
 73
     0
 40
0.0
  0
LTYPE
  5
13
330
5
100
AcDbSymbolTableRecord
100
AcDbLinetypeTableRecord
  2
BYLAYER
 70
     0
  3

 72
    65
 73
     0
 40
0.0
  0
LTYPE
  5
14
330
5
100
AcDbSymbolTableRecord
100
AcDbLinetypeTableRecord
  2
CONTINUOUS
 70
     0
  3
Solid line
 72
    65
 73
     0
 40
0.0
  0
LTYPE
  5
126C
330
5
100
AcDbSymbolTableRecord
100
AcDbLinetypeTableRecord
  2
CENTER
 70
     0
  3
____ _ ____ _ ____ _ ____ _ ____ _ ____ _ ____
 72
    65
 73
     4
 40
2.0
 49
1.25
 74
     0
 49
-0.25
 74
     0
 49
0.25
 74
     0
 49
-0.25
 74
     0
  0
LTYPE
  5
126E
330
5
100
AcDbSymbolTableRecord
100
AcDbLinetypeTableRecord
  2
DASHDOT
 70
     0
  3
__ . __ . __ . __ . __ . __ . __ . __ . __ . __
 72
    65
 73
     4
 40
1.0
 49
0.5
 74
     0
 49
-0.25
 74
     0
 49
0.0
 74
     0
 49
-0.25
 74
     0
  0
LTYPE
  5
1541F
330
5
100
AcDbSymbolTableRecord
100
AcDbLinetypeTableRecord
  2
HIDDEN
 70
     0
  3
_ _ _ _ _ _ _ _ _ _ _ _ _ _ _ _ _ _ _ _ _ _ _
 72
    65
 73
     2
 40
0.375
 49
0.25
 74
     0
 49
-0.125
 74
     0
  0
LTYPE
  5
15420
330
5
100
AcDbSymbolTableRecord
100
AcDbLinetypeTableRecord
  2
CENTER2
 70
     0
  3
Center (.5x) ___ _ ___ _ ___ _ ___ _ ___ _ ___
 72
    65
 73
     4
 40
1.125
 49
0.75
 74
     0
 49
-0.125
 74
     0
 49
0.125
 74
     0
 49
-0.125
 74
     0
  0
LTYPE
  5
15421
330
5
100
AcDbSymbolTableRecord
100
AcDbLinetypeTableRecord
  2
PHANTOM2
 70
     0
  3
Phantom (.5x) ___ _ _ ___ _ _ ___ _ _ ___ _ _
 72
    65
 73
     6
 40
1.25
 49
0.625
 74
     0
 49
-0.125
 74
     0
 49
0.125
 74
     0
 49
-0.125
 74
     0
 49
0.125
 74
     0
 49
-0.125
 74
     0
  0
LTYPE
  5
225CE
330
5
100
AcDbSymbolTableRecord
100
AcDbLinetypeTableRecord
  2
PHANTOM
 70
     0
  3
Phantom ______  __  __  ______  __  __  ______
 72
    65
 73
     6
 40
2.5
 49
1.25
 74
     0
 49
-0.25
 74
     0
 49
0.25
 74
     0
 49
-0.25
 74
     0
 49
0.25
 74
     0
 49
-0.25
 74
     0
  0
ENDTAB
  0
TABLE
  2
LAYER
  5
2
102
{ACAD_XDICTIONARY
360
27FCD
102
}
330
0
100
AcDbSymbolTable
 70
    16
  0
LAYER
  5
E
330
2
100
AcDbSymbolTableRecord
100
AcDbLayerTableRecord
  2
0
 70
     2
 62
     7
  6
CONTINUOUS
370
    -3
390
FB5C
  0
LAYER
  5
2C
330
2
100
AcDbSymbolTableRecord
100
AcDbLayerTableRecord
  2
M_VIEW
 70
     0
 62
    -1
  6
CONTINUOUS
370
    -3
390
FB5C
  0
LAYER
  5
30
330
2
100
AcDbSymbolTableRecord
100
AcDbLayerTableRecord
  2
FRAME025
 70
     0
 62
     7
  6
CONTINUOUS
370
    -3
390
FB5C
  0
LAYER
  5
12B
330
2
100
AcDbSymbolTableRecord
100
AcDbLayerTableRecord
  2
DEFPOINTS
 70
     4
 62
    -7
  6
CONTINUOUS
290
     0
370
    -3
390
FB5C
  0
LAYER
  5
651
330
2
100
AcDbSymbolTableRecord
100
AcDbLayerTableRecord
  2
FRAME020
 70
     0
 62
     7
  6
CONTINUOUS
370
    -3
390
FB5C
  0
LAYER
  5
1271
330
2
100
AcDbSymbolTableRecord
100
AcDbLayerTableRecord
  2
A
 70
     0
 62
     7
  6
CONTINUOUS
370
    -3
390
FB5C
  0
LAYER
  5
A9BB
330
2
100
AcDbSymbolTableRecord
100
AcDbLayerTableRecord
  2
文字
 70
     0
 62
     7
  6
CONTINUOUS
370
    -3
390
FB5C
  0
LAYER
  5
12163
330
2
100
AcDbSymbolTableRecord
100
AcDbLayerTableRecord
  2
寸法線
 70
     0
 62
     7
  6
CONTINUOUS
370
    -3
390
FB5C
  0
LAYER
  5
122DE
330
2
100
AcDbSymbolTableRecord
100
AcDbLayerTableRecord
  2
DIMENSION
 70
     0
 62
     7
  6
CONTINUOUS
370
    -3
390
FB5C
  0
LAYER
  5
15422
330
2
100
AcDbSymbolTableRecord
100
AcDbLayerTableRecord
  2
細線
 70
     0
 62
     7
  6
CONTINUOUS
370
    -3
390
FB5C
  0
LAYER
  5
15423
330
2
100
AcDbSymbolTableRecord
100
AcDbLayerTableRecord
  2
CENTER
 70
     0
 62
     7
  6
CENTER
370
    -3
390
FB5C
  0
LAYER
  5
15425
330
2
100
AcDbSymbolTableRecord
100
AcDbLayerTableRecord
  2
中心線
 70
     0
 62
     7
  6
CENTER2
370
    -3
390
FB5C
  0
LAYER
  5
15426
330
2
100
AcDbSymbolTableRecord
100
AcDbLayerTableRecord
  2
仮想線
 70
     0
 62
     7
  6
PHANTOM2
370
    -3
390
FB5C
  0
LAYER
  5
21DD8
330
2
100
AcDbSymbolTableRecord
100
AcDbLayerTableRecord
  2
破線
 70
     0
 62
     7
  6
HIDDEN
370
    -3
390
FB5C
  0
LAYER
  5
225CF
330
2
100
AcDbSymbolTableRecord
100
AcDbLayerTableRecord
  2
２点鎖線
 70
     0
 62
     7
  6
PHANTOM
370
    -3
390
FB5C
  0
LAYER
  5
2729E
330
2
100
AcDbSymbolTableRecord
100
AcDbLayerTableRecord
  2
ｷｬｯﾌ_ﾎ_ﾙﾄ
 70
     0
 62
     7
  6
CONTINUOUS
370
    -3
390
FB5C
  0
ENDTAB
  0
TABLE
  2
STYLE
  5
3
330
0
100
AcDbSymbolTable
 70
     3
  0
STYLE
  5
F
330
3
100
AcDbSymbolTableRecord
100
AcDbTextStyleTableRecord
  2
STANDARD
 70
     0
 40
0.0
 41
1.0
 50
0.0
 71
     0
 42
2.5
  3
isocp.shx
  4
bigfont.shx
  0
STYLE
  5
35
330
3
100
AcDbSymbolTableRecord
100
AcDbTextStyleTableRecord
  2
MSｺ_ｼｯｸ
 70
     0
 40
0.0
 41
1.0
 50
0.0
 71
     0
 42
5.0
  3
MS Gothic.ttf
  4

1001
ACAD
1000
MS Gothic
1071
    32817
  0
STYLE
  5
1275
330
3
100
AcDbSymbolTableRecord
100
AcDbTextStyleTableRecord
  2
BIGFONT
 70
     0
 40
2.0
 41
1.0
 50
0.0
 71
     0
 42
2.0
  3
txt.shx
  4
bigfont.shx
  0
ENDTAB
  0
TABLE
  2
VIEW
  5
6
330
0
100
AcDbSymbolTable
 70
     0
  0
ENDTAB
  0
TABLE
  2
UCS
  5
7
330
0
100
AcDbSymbolTable
 70
     0
  0
ENDTAB
  0
TABLE
  2
APPID
  5
9
330
0
100
AcDbSymbolTable
 70
     3
  0
APPID
  5
10
330
9
100
AcDbSymbolTableRecord
100
AcDbRegAppTableRecord
  2
ACAD
 70
     0
  0
APPID
  5
F013
330
9
100
AcDbSymbolTableRecord
100
AcDbRegAppTableRecord
  2
CONTENTBLOCKDESCRIPTION
 70
     0
  0
APPID
  5
F014
330
9
100
AcDbSymbolTableRecord
100
AcDbRegAppTableRecord
  2
CONTENTBLOCKICON
 70
     0
  0
ENDTAB
  0
TABLE
  2
DIMSTYLE
  5
A
330
0
100
AcDbSymbolTable
 70
     2
100
AcDbDimStyleTable
 71
     0
  0
DIMSTYLE
105
1D
330
A
100
AcDbSymbolTableRecord
100
AcDbDimStyleTableRecord
  2
STANDARD
 70
     0
340
F
  0
DIMSTYLE
105
1542A
330
A
100
AcDbSymbolTableRecord
100
AcDbDimStyleTableRecord
  2
STD_M_
 70
     0
 40
2.0
 41
3.5
 42
1.0
 43
6.5
 44
1.0
 45
0.005
 73
     0
 74
     0
 77
     1
 78
     9
140
3.0
141
2.5
143
0.0394
147
0.75
171
     4
172
     1
176
     4
177
     4
178
   256
271
     2
272
     2
273
     8
274
     4
284
     9
340
F
341
1215D
342
1215D
  0
ENDTAB
  0
TABLE
  2
BLOCK_RECORD
  5
1
330
0
100
AcDbSymbolTable
 70
     2
  0
BLOCK_RECORD
  5
18
102
{ACAD_XDICTIONARY
360
EFC6
102
}
330
1
100
AcDbSymbolTableRecord
100
AcDbBlockTableRecord
  2
*MODEL_SPACE
340
2892F
  0
BLOCK_RECORD
  5
15
102
{ACAD_XDICTIONARY
360
EFC4
102
}
330
1
100
AcDbSymbolTableRecord
100
AcDbBlockTableRecord
  2
*PAPER_SPACE
340
28930
  0
BLOCK_RECORD
  5
115C
330
1
100
AcDbSymbolTableRecord
100
AcDbBlockTableRecord
  2
機械A4横_LBP
340
0
102
{BLKREFS
331
1160
331
25844
331
115F
102
}
  0
BLOCK_RECORD
  5
1215D
330
1
100
AcDbSymbolTableRecord
100
AcDbBlockTableRecord
  2
_OPEN30
340
0
  0
ENDTAB
  0
ENDSEC
  0
SECTION
  2
BLOCKS
  0
BLOCK
  5
19
330
18
100
AcDbEntity
  8
0
100
AcDbBlockBegin
  2
*MODEL_SPACE
 70
     0
 10
0.0
 20
0.0
 30
0.0
  3
*MODEL_SPACE
  1

  0
ENDBLK
  5
1A
330
18
100
AcDbEntity
  8
0
100
AcDbBlockEnd
  0
BLOCK
  5
16
330
15
100
AcDbEntity
 67
     1
  8
0
100
AcDbBlockBegin
  2
*PAPER_SPACE
 70
     0
 10
0.0
 20
0.0
 30
0.0
  3
*PAPER_SPACE
  1

  0
ENDBLK
  5
17
330
15
100
AcDbEntity
 67
     1
  8
0
100
AcDbBlockEnd
  0
BLOCK
  5
115D
330
115C
100
AcDbEntity
  8
0
100
AcDbBlockBegin
  2
機械A4横_LBP
 70
     0
 10
0.0
 20
0.0
 30
0.0
  3
機械A4横_LBP
  1

  0
ENDBLK
  5
115E
330
115C
100
AcDbEntity
  8
0
100
AcDbBlockEnd
  0
BLOCK
  5
12161
330
1215D
100
AcDbEntity
  8
0
100
AcDbBlockBegin
  2
_OPEN30
 70
     0
 10
0.0
 20
0.0
 30
0.0
  3
_OPEN30
  1

  0
LINE
  5
1215E
330
1215D
100
AcDbEntity
  8
0
  6
ByBlock
 62
     0
100
AcDbLine
 10
-1.0
 20
0.26794919
 30
0.0
 11
0.0
 21
0.0
 31
0.0
  0
LINE
  5
1215F
330
1215D
100
AcDbEntity
  8
0
  6
ByBlock
 62
     0
100
AcDbLine
 10
0.0
 20
0.0
 30
0.0
 11
-1.0
 21
-0.26794919
 31
0.0
  0
LINE
  5
12160
330
1215D
100
AcDbEntity
  8
0
  6
ByBlock
 62
     0
100
AcDbLine
 10
0.0
 20
0.0
 30
0.0
 11
-1.0
 21
0.0
 31
0.0
  0
ENDBLK
  5
12162
330
1215D
100
AcDbEntity
  8
0
100
AcDbBlockEnd
  0
ENDSEC
  0
SECTION
  2
ENTITIES
  0
INSERT
  5
1160
330
18
100
AcDbEntity
  8
FRAME025
100
AcDbBlockReference
  2
機械A4横_LBP
 10
66.00059629174575
 20
114.4379043572399
 30
0.0
  0
MTEXT
  5
1405
330
18
100
AcDbEntity
  8
0
  6
DASHDOT
100
AcDbMText
 10
163.682726410024
 20
430.5785054452221
 30
0.0
 40
1.0
 41
2.0
 71
     1
 72
     5
  1

  7
BIGFONT
 73
     1
 44
1.0
1001
ACAD
1000
MTEXTBEGIN
1070
    73
1070
     1
1070
    44
1040
1.0
1070
    74
1070
     0
1000
MTEXTEND
1000
MTEXTBEGIN
1070
    73
1070
     1
1070
    44
1040
1.0
1070
    74
1070
     0
1000
MTEXTEND
  0
MTEXT
  5
1406
330
18
100
AcDbEntity
  8
0
  6
CENTER
100
AcDbMText
 10
401.3606673541956
 20
323.7890106174461
 30
0.0
 40
2.0
 41
15.6417
 71
     1
 72
     5
  1

  7
BIGFONT
 73
     1
 44
1.0
1001
ACAD
1000
MTEXTBEGIN
1070
    73
1070
     1
1070
    44
1040
1.0
1070
    74
1070
     0
1000
MTEXTEND
1000
MTEXTBEGIN
1070
    73
1070
     1
1070
    44
1040
1.0
1070
    74
1070
     0
1000
MTEXTEND
  0
MTEXT
  5
1407
330
18
100
AcDbEntity
  8
0
100
AcDbMText
 10
75.77239017043272
 20
222.8564838730205
 30
0.0
 40
2.0
 41
0.0
 71
     1
 72
     5
  1

 73
     1
 44
1.0
1001
ACAD
1000
MTEXTBEGIN
1070
    73
1070
     1
1070
    44
1040
1.0
1070
    74
1070
     0
1000
MTEXTEND
1000
MTEXTBEGIN
1070
    73
1070
     1
1070
    44
1040
1.0
1070
    74
1070
     0
1000
MTEXTEND
  0
MTEXT
  5
1408
330
18
100
AcDbEntity
  8
0
100
AcDbMText
 10
120.1718819235825
 20
254.48796746601
 30
0.0
 40
2.0
 41
10.1453
 71
     1
 72
     5
  1

 11
-0.0000000000000002
 21
-1.0
 31
0.0
 73
     1
 44
1.0
1001
ACAD
1000
MTEXTBEGIN
1070
    73
1070
     1
1070
    44
1040
1.0
1070
    74
1070
     0
1000
MTEXTEND
1000
MTEXTBEGIN
1070
    73
1070
     1
1070
    44
1040
1.0
1070
    74
1070
     0
1000
MTEXTEND
  0
MTEXT
  5
142F
330
18
100
AcDbEntity
  8
0
  6
ByBlock
100
AcDbMText
 10
155.9513799082503
 20
329.2674780082993
 30
0.0
 40
2.0
 41
0.0
 71
     7
 72
     5
  1

 11
0.0000000000000001
 21
1.0
 31
0.0
 73
     1
 44
1.0
1001
ACAD
1000
MTEXTBEGIN
1070
    73
1070
     1
1070
    44
1040
1.0
1070
    74
1070
     0
1000
MTEXTEND
1000
MTEXTBEGIN
1070
    73
1070
     1
1070
    44
1040
1.0
1070
    74
1070
     0
1000
MTEXTEND
  0
MTEXT
  5
1430
330
18
100
AcDbEntity
  8
0
  6
ByBlock
100
AcDbMText
 10
120.4859915450975
 20
340.0607863667168
 30
0.0
 40
2.0
 41
0.0
 71
     4
 72
     5
  1

 11
-0.0000000000000002
 21
-1.0
 31
0.0
 73
     1
 44
1.0
1001
ACAD
1000
MTEXTBEGIN
1070
    73
1070
     1
1070
    44
1040
1.0
1070
    74
1070
     0
1000
MTEXTEND
1000
MTEXTBEGIN
1070
    73
1070
     1
1070
    44
1040
1.0
1070
    74
1070
     0
1000
MTEXTEND
  0
MTEXT
  5
1532
330
18
100
AcDbEntity
  8
0
  6
DASHDOT
100
AcDbMText
 10
163.6828134149741
 20
430.5785054452221
 30
0.0
 40
1.0
 41
2.0
 71
     1
 72
     5
  1

  7
BIGFONT
 73
     1
 44
1.0
1001
ACAD
1000
MTEXTBEGIN
1070
    73
1070
     1
1070
    44
1040
1.0
1070
    74
1070
     0
1000
MTEXTEND
1000
MTEXTBEGIN
1070
    73
1070
     1
1070
    44
1040
1.0
1070
    74
1070
     0
1000
MTEXTEND
  0
MTEXT
  5
1533
330
18
100
AcDbEntity
  8
0
  6
CENTER
100
AcDbMText
 10
401.360754359146
 20
323.7890106174461
 30
0.0
 40
2.0
 41
15.6417
 71
     1
 72
     5
  1

  7
BIGFONT
 73
     1
 44
1.0
1001
ACAD
1000
MTEXTBEGIN
1070
    73
1070
     1
1070
    44
1040
1.0
1070
    74
1070
     0
1000
MTEXTEND
1000
MTEXTBEGIN
1070
    73
1070
     1
1070
    44
1040
1.0
1070
    74
1070
     0
1000
MTEXTEND
  0
MTEXT
  5
1534
330
18
100
AcDbEntity
  8
0
100
AcDbMText
 10
75.77247717538298
 20
222.8564838730205
 30
0.0
 40
2.0
 41
0.0
 71
     1
 72
     5
  1

 73
     1
 44
1.0
1001
ACAD
1000
MTEXTBEGIN
1070
    73
1070
     1
1070
    44
1040
1.0
1070
    74
1070
     0
1000
MTEXTEND
1000
MTEXTBEGIN
1070
    73
1070
     1
1070
    44
1040
1.0
1070
    74
1070
     0
1000
MTEXTEND
  0
MTEXT
  5
1535
330
18
100
AcDbEntity
  8
0
100
AcDbMText
 10
120.1719689285329
 20
254.48796746601
 30
0.0
 40
2.0
 41
10.1453
 71
     1
 72
     5
  1

 11
-0.0000000000000002
 21
-1.0
 31
0.0
 73
     1
 44
1.0
1001
ACAD
1000
MTEXTBEGIN
1070
    73
1070
     1
1070
    44
1040
1.0
1070
    74
1070
     0
1000
MTEXTEND
1000
MTEXTBEGIN
1070
    73
1070
     1
1070
    44
1040
1.0
1070
    74
1070
     0
1000
MTEXTEND
  0
MTEXT
  5
155C
330
18
100
AcDbEntity
  8
0
  6
ByBlock
100
AcDbMText
 10
155.9514669132003
 20
329.2674780082993
 30
0.0
 40
2.0
 41
0.0
 71
     7
 72
     5
  1

 11
0.0000000000000001
 21
1.0
 31
0.0
 73
     1
 44
1.0
1001
ACAD
1000
MTEXTBEGIN
1070
    73
1070
     1
1070
    44
1040
1.0
1070
    74
1070
     0
1000
MTEXTEND
1000
MTEXTBEGIN
1070
    73
1070
     1
1070
    44
1040
1.0
1070
    74
1070
     0
1000
MTEXTEND
  0
MTEXT
  5
155D
330
18
100
AcDbEntity
  8
0
  6
ByBlock
100
AcDbMText
 10
120.4860785500478
 20
340.0607863667168
 30
0.0
 40
2.0
 41
0.0
 71
     4
 72
     5
  1

 11
-0.0000000000000002
 21
-1.0
 31
0.0
 73
     1
 44
1.0
1001
ACAD
1000
MTEXTBEGIN
1070
    73
1070
     1
1070
    44
1040
1.0
1070
    74
1070
     0
1000
MTEXTEND
1000
MTEXTBEGIN
1070
    73
1070
     1
1070
    44
1040
1.0
1070
    74
1070
     0
1000
MTEXTEND
  0
TEXT
  5
2279
330
18
100
AcDbEntity
  8
A
100
AcDbText
 10
-37.81881037320381
 20
322.0637567728283
 30
0.0
 40
3.524999999999999
  1
�    
100
AcDbText
  0
TEXT
  5
2283
330
18
100
AcDbEntity
  8
A
100
AcDbText
 10
-185.7439103235753
 20
-107.9032633455339
 30
0.0
 40
2.5
  1

 41
0.5
  7
MSｺ_ｼｯｸ
100
AcDbText
  0
TEXT
  5
2293
330
18
100
AcDbEntity
  8
A
100
AcDbText
 10
-177.9189103235753
 20
-107.9032633455339
 30
0.0
 40
2.5
  1

  7
MSｺ_ｼｯｸ
100
AcDbText
  0
LINE
  5
22D71
330
18
100
AcDbEntity
  8
中心線
100
AcDbLine
 10
264.7174044732379
 20
1015.908492925172
 30
0.0
 11
-175.282595526762
 21
1015.908492925172
 31
0.0
  0
ARC
  5
22D75
330
18
100
AcDbEntity
  8
中心線
100
AcDbCircle
 10
50.19042023537942
 20
1016.380106531318
 30
0.0
 40
224.9999999999996
100
AcDbArc
 50
307.8331660771342
 51
321.8266473299883
  0
LINE
  5
22D76
330
18
100
AcDbEntity
  8
中心線
100
AcDbLine
 10
193.1979356972425
 20
872.4279617011736
 30
0.0
 11
226.3670221849143
 21
839.2588752135019
 31
0.0
  0
LINE
  5
22D7A
330
18
100
AcDbEntity
  8
中心線
100
AcDbLine
 10
193.1979356972363
 20
1159.389024149176
 30
0.0
 11
226.3670221849084
 21
1192.558110636847
 31
0.0
  0
LINE
  5
22D7D
330
18
100
AcDbEntity
  8
中心線
100
AcDbLine
 10
49.71740447323793
 20
800.9084929251722
 30
0.0
 11
49.71740447323793
 21
1240.908492925171
 31
0.0
  0
LINE
  5
22D88
330
18
100
AcDbEntity
  8
0
100
AcDbLine
 10
-153.2825955267649
 20
1168.908492925175
 30
0.0
 11
-153.2825955267649
 21
1015.908492925172
 31
0.0
  0
LINE
  5
22D90
330
18
100
AcDbEntity
  8
0
100
AcDbLine
 10
-103.282595526765
 20
812.9084929251691
 30
0.0
 11
29.79679408851781
 21
812.9084929251691
 31
0.0
  0
CIRCLE
  5
22D91
330
18
100
AcDbEntity
  8
0
100
AcDbCircle
 10
-109.3816212937325
 20
856.8094671581949
 30
0.0
 40
8.5
  0
LINE
  5
22D95
330
18
100
AcDbEntity
  8
中心線
100
AcDbLine
 10
-93.76312675076055
 20
872.4279617011676
 30
0.0
 11
-126.9322132384322
 21
839.2588752134958
 31
0.0
  0
LINE
  5
22D9F
330
18
100
AcDbEntity
  8
0
100
AcDbLine
 10
-153.2825955267649
 20
1015.908492925172
 30
0.0
 11
-153.2825955267649
 21
862.9084929251691
 31
0.0
  0
LINE
  5
22DA0
330
18
100
AcDbEntity
  8
0
100
AcDbLine
 10
-159.279372561228
 20
926.3965596502004
 30
0.0
 11
-159.282682540434
 21
945.396559361886
 31
0.0
  0
LINE
  5
22DA1
330
18
100
AcDbEntity
  8
0
100
AcDbLine
 10
-162.2828567043428
 20
946.3960367184157
 30
0.0
 11
-162.2791983062727
 21
925.3960370370792
 31
0.0
  0
LINE
  5
22DA2
330
18
100
AcDbEntity
  8
0
100
AcDbLine
 10
-154.2791984276689
 20
925.3974307125343
 30
0.0
 11
-154.282856825739
 21
946.3974303938707
 31
0.0
  0
LINE
  5
22DA3
330
18
100
AcDbEntity
  8
0
100
AcDbLine
 10
-157.282856780215
 20
946.3969077655749
 30
0.0
 11
-157.2791983821451
 21
925.3969080842386
 31
0.0
  0
LINE
  5
22DA4
330
18
100
AcDbEntity
  8
0
100
AcDbLine
 10
-169.2826525242151
 20
945.2233886987393
 30
0.0
 11
-169.2794022739574
 21
926.5662461247087
 31
0.0
  0
LINE
  5
22DA5
330
18
100
AcDbEntity
  8
0
100
AcDbLine
 10
-168.2828566132956
 20
946.394991461824
 30
0.0
 11
-172.7819382124339
 21
941.1227790279436
 31
0.0
  0
ARC
  5
22DA6
330
18
100
AcDbEntity
  8
0
100
AcDbCircle
 10
-160.3090077649097
 20
946.095295763544
 30
0.0
 40
9.015903847971632
100
AcDbArc
 50
185.5496147837551
 51
207.8304203210863
  0
LINE
  5
22DA7
330
18
100
AcDbEntity
  8
0
100
AcDbLine
 10
-184.731690778599
 20
933.4084929284724
 30
0.0
 11
-357.68348705695
 21
933.4084929284722
 31
0.0
  0
LINE
  5
22DA8
330
18
100
AcDbEntity
  8
0
100
AcDbLine
 10
-184.731690778599
 20
938.4084929218724
 30
0.0
 11
-357.68348705695
 21
938.4084929218719
 31
0.0
  0
LINE
  5
22DA9
330
18
100
AcDbEntity
  8
0
100
AcDbLine
 10
-357.68348705695
 20
938.1584929251722
 30
0.0
 11
-358.4183863858088
 21
938.0326539989978
 31
0.0
  0
LINE
  5
22DAA
330
18
100
AcDbEntity
  8
0
100
AcDbLine
 10
-357.68348705695
 20
935.7584929251723
 30
0.0
 11
-358.4183863858088
 21
935.6326539989979
 31
0.0
  0
LINE
  5
22DAB
330
18
100
AcDbEntity
  8
0
100
AcDbLine
 10
-357.68348705695
 20
935.5084929251724
 30
0.0
 11
-379.5834870569501
 21
939.2084929251719
 31
0.0
  0
LINE
  5
22DAC
330
18
100
AcDbEntity
  8
0
100
AcDbLine
 10
-357.68348705695
 20
933.5084929251724
 30
0.0
 11
-379.5834870569501
 21
937.208492925172
 31
0.0
  0
LINE
  5
22DAD
330
18
100
AcDbEntity
  8
0
100
AcDbLine
 10
-357.68348705695
 20
935.9084929251723
 30
0.0
 11
-379.5834870569501
 21
939.6084929251722
 31
0.0
  0
LINE
  5
22DAE
330
18
100
AcDbEntity
  8
0
100
AcDbLine
 10
-357.68348705695
 20
937.9084929251723
 30
0.0
 11
-379.5834870569501
 21
941.6084929251722
 31
0.0
  0
LINE
  5
22DAF
330
18
100
AcDbEntity
  8
0
100
AcDbLine
 10
-364.2975810166813
 20
934.6259425896018
 30
0.0
 11
-379.5834870569501
 21
932.0084929251724
 31
0.0
  0
LINE
  5
22DB0
330
18
100
AcDbEntity
  8
0
100
AcDbLine
 10
-365.378081651545
 20
934.8084929251724
 30
0.0
 11
-379.5834870569501
 21
932.4084929251723
 31
0.0
  0
LINE
  5
22DB1
330
18
100
AcDbEntity
  8
0
100
AcDbLine
 10
-371.3526145737282
 20
935.8178888983264
 30
0.0
 11
-379.5834870569501
 21
934.4084929251723
 31
0.0
  0
LINE
  5
22DB2
330
18
100
AcDbEntity
  8
0
100
AcDbLine
 10
-358.2753789488417
 20
933.6084929251724
 30
0.0
 11
-379.5834870569501
 21
930.0084929251724
 31
0.0
  0
LINE
  5
22DB3
330
18
100
AcDbEntity
  8
0
100
AcDbLine
 10
-379.5834870569501
 20
943.2584929251724
 30
0.0
 11
-379.5834870569501
 21
928.5084929251723
 31
0.0
  0
LINE
  5
22DB4
330
18
100
AcDbEntity
  8
0
100
AcDbLine
 10
-358.2753789488417
 20
936.0084929251724
 30
0.0
 11
-359.459162732626
 21
935.8084929251724
 31
0.0
  0
LINE
  5
22DB5
330
18
100
AcDbEntity
  8
0
100
AcDbLine
 10
-364.2975810166815
 20
937.0259425896021
 30
0.0
 11
-365.4734199428558
 21
936.8246003077226
 31
0.0
  0
LINE
  5
22DB6
330
18
100
AcDbEntity
  8
0
100
AcDbLine
 10
-357.68348705695
 20
933.4084929284724
 30
0.0
 11
-357.68348705695
 21
938.4084929218724
 31
0.0
  0
LINE
  5
22DBA
330
18
100
AcDbEntity
  8
0
100
AcDbLine
 10
-168.2791982152255
 20
925.3949917804879
 30
0.0
 11
-172.7801164795176
 21
930.6656363294813
 31
0.0
  0
ARC
  5
22DBB
330
18
100
AcDbEntity
  8
0
100
AcDbCircle
 10
-183.3265682252051
 20
934.6584929268223
 30
0.0
 40
1.880656636903949
100
AcDbArc
 50
138.3436407292487
 51
221.656359270751
  0
LINE
  5
22DBC
330
18
100
AcDbEntity
  8
0
100
AcDbLine
 10
-172.7819382124339
 20
941.122779027944
 30
0.0
 11
-172.7801164795176
 21
930.6656363294813
 31
0.0
  0
ARC
  5
22DBD
330
18
100
AcDbEntity
  8
0
100
AcDbCircle
 10
-181.4339486257286
 20
937.1584929235224
 30
0.0
 40
1.880656636903949
100
AcDbArc
 50
138.3436407292487
 51
221.656359270751
  0
ARC
  5
22DBE
330
18
100
AcDbEntity
  8
0
100
AcDbCircle
 10
-186.1368133319928
 20
937.1584929235224
 30
0.0
 40
1.880656636903949
100
AcDbArc
 50
318.3436407292488
 51
41.6563592707512
  0
ARC
  5
22DBF
330
18
100
AcDbEntity
  8
0
100
AcDbCircle
 10
-184.2441937325162
 20
937.1584929235224
 30
0.0
 40
1.880656636903949
100
AcDbArc
 50
318.3436407292488
 51
41.6563592707512
  0
ARC
  5
22DC0
330
18
100
AcDbEntity
  8
0
100
AcDbCircle
 10
-181.4339486257292
 20
934.6584929268223
 30
0.0
 40
1.880656636903949
100
AcDbArc
 50
138.3436407292487
 51
221.656359270751
  0
ARC
  5
22DC1
330
18
100
AcDbEntity
  8
0
100
AcDbCircle
 10
-186.1368133319928
 20
934.6584929268223
 30
0.0
 40
1.880656636903949
100
AcDbArc
 50
318.3436407292488
 51
41.6563592707512
  0
LINE
  5
22DC2
330
18
100
AcDbEntity
  8
0
100
AcDbLine
 10
-172.782595526765
 20
933.4084929284726
 30
0.0
 11
-182.839071179123
 21
933.4084929284724
 31
0.0
  0
LINE
  5
22DC3
330
18
100
AcDbEntity
  8
0
100
AcDbLine
 10
-172.782595526765
 20
938.4084929218726
 30
0.0
 11
-182.8390711791223
 21
938.4084929218724
 31
0.0
  0
LINE
  5
22DC4
330
18
100
AcDbEntity
  8
0
100
AcDbLine
 10
-157.280248492916
 20
931.4247720377695
 30
0.0
 11
-154.2802485384398
 21
931.4252946660653
 31
0.0
  0
LINE
  5
22DC5
330
18
100
AcDbEntity
  8
0
100
AcDbLine
 10
-157.2799838622728
 20
929.9057346573675
 30
0.0
 11
-154.2799839077965
 21
929.9062572856636
 31
0.0
  0
LINE
  5
22DC6
330
18
100
AcDbEntity
  8
0
100
AcDbLine
 10
-154.2791984276689
 20
925.3974307125343
 30
0.0
 11
-157.2791983821451
 21
925.3969080842386
 31
0.0
  0
LINE
  5
22DC7
330
18
100
AcDbEntity
  8
0
100
AcDbLine
 10
-154.282071345611
 20
941.8886038207419
 30
0.0
 11
-157.2820713000871
 21
941.8880811924465
 31
0.0
  0
LINE
  5
22DC8
330
18
100
AcDbEntity
  8
0
100
AcDbLine
 10
-154.2818067149678
 20
940.36956644034
 30
0.0
 11
-157.2818066694441
 21
940.3690438120444
 31
0.0
  0
LINE
  5
22DC9
330
18
100
AcDbEntity
  8
0
100
AcDbLine
 10
-157.2797384313838
 20
928.4969080371983
 30
0.0
 11
-159.2797384010349
 21
928.4965596183344
 31
0.0
  0
LINE
  5
22DCA
330
18
100
AcDbEntity
  8
0
100
AcDbLine
 10
-157.282316730976
 20
943.2969078126163
 30
0.0
 11
-159.282316700627
 21
943.2965593937526
 31
0.0
  0
ARC
  5
22DCB
330
18
100
AcDbEntity
  8
0
100
AcDbCircle
 10
-158.7810275584178
 20
935.8966466107592
 30
0.0
 40
10.50000000000042
100
AcDbArc
 50
154.801216168494
 51
205.2187467620018
  0
LINE
  5
22DCC
330
18
100
AcDbEntity
  8
0
100
AcDbLine
 10
-168.2802483259969
 20
931.4228557340188
 30
0.0
 11
-168.2799836953536
 21
929.9038183536167
 31
0.0
  0
LINE
  5
22DCD
330
18
100
AcDbEntity
  8
0
100
AcDbLine
 10
-168.2802483259969
 20
931.4228557340184
 30
0.0
 11
-162.2802484170436
 21
931.4239009906101
 31
0.0
  0
LINE
  5
22DCE
330
18
100
AcDbEntity
  8
0
100
AcDbLine
 10
-168.2799836953536
 20
929.9038183536167
 30
0.0
 11
-162.2799837864005
 21
929.9048636102083
 31
0.0
  0
LINE
  5
22DCF
330
18
100
AcDbEntity
  8
0
100
AcDbLine
 10
-162.2791983062727
 20
925.3960370370792
 30
0.0
 11
-168.2791982152255
 21
925.3949917804879
 31
0.0
  0
ARC
  5
22DD0
330
18
100
AcDbEntity
  8
0
100
AcDbCircle
 10
-160.3054542704684
 20
925.6974656998906
 30
0.0
 40
9.015903847971632
100
AcDbArc
 50
152.1895426094149
 51
174.4703481467429
  0
LINE
  5
22DD1
330
18
100
AcDbEntity
  8
0
100
AcDbLine
 10
-168.282071133168
 20
941.8861648886954
 30
0.0
 11
-168.281806502525
 21
940.3671275082936
 31
0.0
  0
LINE
  5
22DD2
330
18
100
AcDbEntity
  8
0
100
AcDbLine
 10
-162.2820712242148
 20
941.8872101452867
 30
0.0
 11
-168.282071133168
 21
941.8861648886954
 31
0.0
  0
LINE
  5
22DD3
330
18
100
AcDbEntity
  8
0
100
AcDbLine
 10
-162.2818065935716
 20
940.3681727648848
 30
0.0
 11
-168.281806502525
 21
940.3671275082936
 31
0.0
  0
LINE
  5
22DD4
330
18
100
AcDbEntity
  8
0
100
AcDbLine
 10
-159.279372561228
 20
926.3965596502004
 30
0.0
 11
-162.2793725157047
 21
926.3960370219047
 31
0.0
  0
LINE
  5
22DD5
330
18
100
AcDbEntity
  8
0
100
AcDbLine
 10
-153.2794597569908
 20
926.8976048992046
 30
0.0
 11
-154.2794597418168
 21
926.8974306897728
 31
0.0
  0
LINE
  5
22DD7
330
18
100
AcDbEntity
  8
0
100
AcDbLine
 10
-154.282856825739
 20
946.3974303938707
 30
0.0
 11
-157.282856780215
 21
946.3969077655749
 31
0.0
  0
LINE
  5
22DD8
330
18
100
AcDbEntity
  8
0
100
AcDbLine
 10
-162.2828567043428
 20
946.3960367184157
 30
0.0
 11
-168.2828566132959
 21
946.394991461824
 31
0.0
  0
LINE
  5
22DD9
330
18
100
AcDbEntity
  8
0
100
AcDbLine
 10
-159.282682540434
 20
945.396559361886
 30
0.0
 11
-162.2826824949106
 21
945.39603673359
 31
0.0
  0
LINE
  5
22DDA
330
18
100
AcDbEntity
  8
0
100
AcDbLine
 10
-153.2825955267649
 20
944.8976046260643
 30
0.0
 11
-154.2825955115909
 21
944.8974304166323
 31
0.0
  0
LINE
  5
22E14
330
18
100
AcDbEntity
  8
0
100
AcDbLine
 10
69.79679408851826
 20
812.9084929251694
 30
0.0
 11
202.7174044732408
 21
812.9084929251694
 31
0.0
  0
LINE
  5
22E7F
330
18
100
AcDbEntity
  8
0
100
AcDbLine
 10
29.6380148579575
 20
1218.908492925175
 30
0.0
 11
-103.282595526765
 21
1218.908492925175
 31
0.0
  0
LINE
  5
22E84
330
18
100
AcDbEntity
  8
0
100
AcDbLine
 10
-309.3081516036237
 20
1093.908492925171
 30
0.0
 11
-186.6039145903853
 21
1093.908492925171
 31
0.0
  0
LINE
  5
22E85
330
18
100
AcDbEntity
  8
0
100
AcDbLine
 10
-309.0191393278116
 20
1097.908492925171
 30
0.0
 11
-186.6039145903848
 21
1097.908492925171
 31
0.0
  0
LINE
  5
22E8F
330
18
100
AcDbEntity
  8
0
100
AcDbLine
 10
-168.2791982152258
 20
1085.394991780488
 30
0.0
 11
-172.7801164795176
 21
1090.665636329481
 31
0.0
  0
LINE
  5
22E90
330
18
100
AcDbEntity
  8
0
100
AcDbLine
 10
-168.2828566132956
 20
1106.394991461824
 30
0.0
 11
-172.7819382124339
 21
1101.122779027944
 31
0.0
  0
ARC
  5
22E91
330
18
100
AcDbEntity
  8
0
100
AcDbCircle
 10
-185.9474351515066
 20
1096.908492924771
 30
0.0
 40
1.504525310907321
100
AcDbArc
 50
318.3436407292488
 51
41.6563592707512
  0
LINE
  5
22E92
330
18
100
AcDbEntity
  8
0
100
AcDbLine
 10
-184.8233371070458
 20
1093.908492925171
 30
0.0
 11
-172.7770211055868
 21
1093.908492925173
 31
0.0
  0
LINE
  5
22E93
330
18
100
AcDbEntity
  8
0
100
AcDbLine
 10
-184.8233371070463
 20
1097.908492925171
 30
0.0
 11
-172.7777179433248
 21
1097.908492925171
 31
0.0
  0
ARC
  5
22E94
330
18
100
AcDbEntity
  8
0
100
AcDbCircle
 10
-185.4798165459243
 20
1094.908492925573
 30
0.0
 40
1.504525310907321
100
AcDbArc
 50
138.3436407292487
 51
221.656359270751
  0
ARC
  5
22E95
330
18
100
AcDbEntity
  8
0
100
AcDbCircle
 10
-187.7280126334227
 20
1094.908492925573
 30
0.0
 40
1.504525310907321
100
AcDbArc
 50
318.3436407292488
 51
41.6563592707512
  0
ARC
  5
22E96
330
18
100
AcDbEntity
  8
0
100
AcDbCircle
 10
-183.6992390640083
 20
1094.908492925572
 30
0.0
 40
1.504525310907321
100
AcDbArc
 50
138.3436407292487
 51
221.656359270751
  0
ARC
  5
22E97
330
18
100
AcDbEntity
  8
0
100
AcDbCircle
 10
-183.6992390640086
 20
1096.908492924771
 30
0.0
 40
1.504525310907321
100
AcDbArc
 50
138.3436407292487
 51
221.656359270751
  0
ARC
  5
22E98
330
18
100
AcDbEntity
  8
0
100
AcDbCircle
 10
-187.7280126334227
 20
1096.908492924771
 30
0.0
 40
1.504525310907321
100
AcDbArc
 50
318.3436407292488
 51
41.6563592707512
  0
LINE
  5
22E99
330
18
100
AcDbEntity
  8
0
100
AcDbLine
 10
-172.7819382124339
 20
1101.122779027944
 30
0.0
 11
-172.7801164795176
 21
1090.665636329481
 31
0.0
  0
LINE
  5
22E9A
330
18
100
AcDbEntity
  8
0
100
AcDbLine
 10
-162.2828567043428
 20
1106.396036718414
 30
0.0
 11
-162.2791983062727
 21
1085.396037037078
 31
0.0
  0
LINE
  5
22E9B
330
18
100
AcDbEntity
  8
0
100
AcDbLine
 10
-154.2791984276689
 20
1085.397430712534
 30
0.0
 11
-154.282856825739
 21
1106.397430393871
 31
0.0
  0
LINE
  5
22E9C
330
18
100
AcDbEntity
  8
0
100
AcDbLine
 10
-157.282856780215
 20
1106.396907765575
 30
0.0
 11
-157.2791983821451
 21
1085.396908084238
 31
0.0
  0
LINE
  5
22E9D
330
18
100
AcDbEntity
  8
0
100
AcDbLine
 10
-157.280248492916
 20
1091.424772037769
 30
0.0
 11
-154.2802485384398
 21
1091.425294666065
 31
0.0
  0
LINE
  5
22E9E
330
18
100
AcDbEntity
  8
0
100
AcDbLine
 10
-157.2799838622728
 20
1089.905734657367
 30
0.0
 11
-154.2799839077965
 21
1089.906257285663
 31
0.0
  0
LINE
  5
22E9F
330
18
100
AcDbEntity
  8
0
100
AcDbLine
 10
-154.2791984276689
 20
1085.397430712534
 30
0.0
 11
-157.2791983821451
 21
1085.396908084238
 31
0.0
  0
LINE
  5
22EA0
330
18
100
AcDbEntity
  8
0
100
AcDbLine
 10
-154.282071345611
 20
1101.888603820742
 30
0.0
 11
-157.2820713000871
 21
1101.888081192446
 31
0.0
  0
LINE
  5
22EA1
330
18
100
AcDbEntity
  8
0
100
AcDbLine
 10
-154.2818067149678
 20
1100.369566440339
 30
0.0
 11
-157.2818066694441
 21
1100.369043812044
 31
0.0
  0
LINE
  5
22EA2
330
18
100
AcDbEntity
  8
0
100
AcDbLine
 10
-159.279372561228
 20
1086.3965596502
 30
0.0
 11
-159.282682540434
 21
1105.396559361885
 31
0.0
  0
LINE
  5
22EA3
330
18
100
AcDbEntity
  8
0
100
AcDbLine
 10
-157.279738431384
 20
1088.496908037198
 30
0.0
 11
-159.2797384010351
 21
1088.496559618334
 31
0.0
  0
LINE
  5
22EA4
330
18
100
AcDbEntity
  8
0
100
AcDbLine
 10
-157.2823167309761
 20
1103.296907812616
 30
0.0
 11
-159.2823167006273
 21
1103.296559393752
 31
0.0
  0
LINE
  5
22EA5
330
18
100
AcDbEntity
  8
0
100
AcDbLine
 10
-168.2802483259969
 20
1091.422855734017
 30
0.0
 11
-162.2802484170436
 21
1091.423900990609
 31
0.0
  0
LINE
  5
22EA6
330
18
100
AcDbEntity
  8
0
100
AcDbLine
 10
-168.2799836953536
 20
1089.903818353617
 30
0.0
 11
-162.2799837864005
 21
1089.904863610207
 31
0.0
  0
LINE
  5
22EA7
330
18
100
AcDbEntity
  8
0
100
AcDbLine
 10
-162.2791983062727
 20
1085.396037037078
 30
0.0
 11
-168.2791982152258
 21
1085.394991780488
 31
0.0
  0
LINE
  5
22EA8
330
18
100
AcDbEntity
  8
0
100
AcDbLine
 10
-162.2820712242148
 20
1101.887210145287
 30
0.0
 11
-168.282071133168
 21
1101.886164888695
 31
0.0
  0
LINE
  5
22EA9
330
18
100
AcDbEntity
  8
0
100
AcDbLine
 10
-162.2818065935716
 20
1100.368172764885
 30
0.0
 11
-168.281806502525
 21
1100.367127508292
 31
0.0
  0
LINE
  5
22EAA
330
18
100
AcDbEntity
  8
0
100
AcDbLine
 10
-169.2826525242151
 20
1105.223388698739
 30
0.0
 11
-169.2794022739574
 21
1086.566246124708
 31
0.0
  0
ARC
  5
22EAB
330
18
100
AcDbEntity
  8
0
100
AcDbCircle
 10
-160.30900776491
 20
1106.095295763544
 30
0.0
 40
9.015903847971632
100
AcDbArc
 50
185.5496147837551
 51
207.8304203210863
  0
ARC
  5
22EAC
330
18
100
AcDbEntity
  8
0
100
AcDbCircle
 10
-158.781027558418
 20
1095.896646610759
 30
0.0
 40
10.50000000000042
100
AcDbArc
 50
154.801216168494
 51
205.2187467620018
  0
LINE
  5
22EAD
330
18
100
AcDbEntity
  8
0
100
AcDbLine
 10
-168.2802483259969
 20
1091.422855734019
 30
0.0
 11
-168.2799836953536
 21
1089.903818353617
 31
0.0
  0
ARC
  5
22EAE
330
18
100
AcDbEntity
  8
0
100
AcDbCircle
 10
-160.3054542704686
 20
1085.69746569989
 30
0.0
 40
9.015903847971632
100
AcDbArc
 50
152.1895426094149
 51
174.4703481467429
  0
LINE
  5
22EAF
330
18
100
AcDbEntity
  8
0
100
AcDbLine
 10
-168.282071133168
 20
1101.886164888695
 30
0.0
 11
-168.281806502525
 21
1100.367127508292
 31
0.0
  0
LINE
  5
22EB0
330
18
100
AcDbEntity
  8
0
100
AcDbLine
 10
-159.279372561228
 20
1086.3965596502
 30
0.0
 11
-162.2793725157047
 21
1086.396037021905
 31
0.0
  0
LINE
  5
22EB1
330
18
100
AcDbEntity
  8
0
100
AcDbLine
 10
-159.282682540434
 20
1105.396559361885
 30
0.0
 11
-162.2826824949106
 21
1105.39603673359
 31
0.0
  0
LINE
  5
22EB2
330
18
100
AcDbEntity
  8
0
100
AcDbLine
 10
-153.2794597569908
 20
1086.897604899204
 30
0.0
 11
-154.2794597418169
 21
1086.897430689772
 31
0.0
  0
LINE
  5
22EB3
330
18
100
AcDbEntity
  8
0
100
AcDbLine
 10
-153.2825955267649
 20
1104.897604626064
 30
0.0
 11
-154.2825955115909
 21
1104.897430416632
 31
0.0
  0
LINE
  5
22EB4
330
18
100
AcDbEntity
  8
0
100
AcDbLine
 10
-154.282856825739
 20
1106.397430393871
 30
0.0
 11
-157.282856780215
 21
1106.396907765575
 31
0.0
  0
LINE
  5
22EB5
330
18
100
AcDbEntity
  8
0
100
AcDbLine
 10
-162.2828567043428
 20
1106.396036718414
 30
0.0
 11
-168.2828566132959
 21
1106.394991461824
 31
0.0
  0
LINE
  5
22EC8
330
18
100
AcDbEntity
  8
中心線
100
AcDbLine
 10
-93.76312675076666
 20
1159.389024149169
 30
0.0
 11
-126.9322132384384
 21
1192.558110636842
 31
0.0
  0
CIRCLE
  5
22ECB
330
18
100
AcDbEntity
  8
0
100
AcDbCircle
 10
-109.3816212937392
 20
1175.007518692142
 30
0.0
 40
8.5
  0
LINE
  5
22EDB
330
18
100
AcDbEntity
  8
0
100
AcDbLine
 10
202.7174044732408
 20
1218.908492925175
 30
0.0
 11
69.63801485795793
 21
1218.908492925175
 31
0.0
  0
LINE
  5
22F2E
330
18
100
AcDbEntity
  8
0
100
AcDbLine
 10
252.7174044732408
 20
1015.908492925172
 30
0.0
 11
252.7174044732408
 21
1168.908492925175
 31
0.0
  0
CIRCLE
  5
22F30
330
18
100
AcDbEntity
  8
0
100
AcDbCircle
 10
208.8164302402152
 20
856.8094671582015
 30
0.0
 40
8.5
  0
LINE
  5
22F33
330
18
100
AcDbEntity
  8
0
100
AcDbLine
 10
252.7174044732408
 20
862.9084929251694
 30
0.0
 11
252.7174044732408
 21
1015.908492925172
 31
0.0
  0
CIRCLE
  5
22F5C
330
18
100
AcDbEntity
  8
0
100
AcDbCircle
 10
208.8164302402085
 20
1175.007518692149
 30
0.0
 40
8.5
  0
LINE
  5
23AC1
330
18
100
AcDbEntity
  8
0
100
AcDbLine
 10
-151.282595526762
 20
539.2427692718374
 30
0.0
 11
-151.282595526762
 21
538.7427692718373
 31
0.0
  0
LINE
  5
23AD6
330
18
100
AcDbEntity
  8
中心線
100
AcDbLine
 10
49.71740447323789
 20
590.9109751495707
 30
0.0
 11
49.71740447323748
 21
427.6427692718374
 31
0.0
  0
LINE
  5
23ADC
330
18
100
AcDbEntity
  8
0
100
AcDbLine
 10
-358.2761737817111
 20
451.3202491876604
 30
0.0
 11
-379.5855349043534
 21
454.9128248224456
 31
0.0
  0
LINE
  5
23ADD
330
18
100
AcDbEntity
  8
0
100
AcDbLine
 10
-357.6836199299149
 20
449.4204555292835
 30
0.0
 11
-379.5823294508558
 21
445.7128253808661
 31
0.0
  0
LINE
  5
23ADE
330
18
100
AcDbEntity
  8
0
100
AcDbLine
 10
-357.6843167676319
 20
451.4204554078879
 30
0.0
 11
-379.5830262885727
 21
447.7128252594703
 31
0.0
  0
LINE
  5
23ADF
330
18
100
AcDbEntity
  8
0
100
AcDbLine
 10
-357.6834805623716
 20
449.0204555535627
 30
0.0
 11
-379.5821900833123
 21
445.3128254051452
 31
0.0
  0
LINE
  5
23AE0
330
18
100
AcDbEntity
  8
0
100
AcDbLine
 10
-357.6827837246547
 20
447.0204556749584
 30
0.0
 11
-379.5814932455956
 21
443.3128255265408
 31
0.0
  0
LINE
  5
23AE9
330
18
100
AcDbEntity
  8
0
100
AcDbLine
 10
-364.2980209853655
 20
450.3007013362183
 30
0.0
 11
-379.5848380666363
 21
452.9128249438413
 31
0.0
  0
LINE
  5
23AEA
330
18
100
AcDbEntity
  8
0
100
AcDbLine
 10
-379.5822022623898
 20
441.6760990687071
 30
0.0
 11
-379.5847718515103
 21
456.4260988448838
 31
0.0
  0
LINE
  5
23AEB
330
18
100
AcDbEntity
  8
0
100
AcDbLine
 10
-371.3526388176146
 20
449.1062969931038
 30
0.0
 11
-379.5840018613763
 21
450.5128250895163
 31
0.0
  0
LINE
  5
23AEC
330
18
100
AcDbEntity
  8
0
100
AcDbLine
 10
-365.3784579506655
 20
450.1177745449306
 30
0.0
 11
-379.5846986990931
 21
452.5128249681206
 31
0.0
  0
LINE
  5
23AED
330
18
100
AcDbEntity
  8
0
100
AcDbLine
 10
-364.2971847801053
 20
447.9007014818932
 30
0.0
 11
-365.4730937863567
 21
448.1016340670948
 31
0.0
  0
LINE
  5
23AF0
330
18
100
AcDbEntity
  8
0
100
AcDbLine
 10
-171.782595526762
 20
451.5427692685376
 30
0.0
 11
-182.8390711791194
 21
451.5427692685375
 31
0.0
  0
LINE
  5
23AF1
330
18
100
AcDbEntity
  8
0
100
AcDbLine
 10
-171.782595526762
 20
446.5427692751376
 30
0.0
 11
-182.8390711791201
 21
446.5427692751374
 31
0.0
  0
LINE
  5
23AF2
330
18
100
AcDbEntity
  8
中心線
100
AcDbLine
 10
-177.782595526762
 20
449.0427692718374
 30
0.0
 11
-146.6166229487866
 21
449.0427692718374
 31
0.0
  0
LINE
  5
23AF3
330
18
100
AcDbEntity
  8
0
100
AcDbLine
 10
-184.7316907785961
 20
451.5427692685375
 30
0.0
 11
-357.6866199235786
 21
451.5427692685372
 31
0.0
  0
LINE
  5
23AF4
330
18
100
AcDbEntity
  8
0
100
AcDbLine
 10
-184.7316907785961
 20
446.5427692751374
 30
0.0
 11
-357.6866199235786
 21
446.5427692751374
 31
0.0
  0
LINE
  5
23AF5
330
18
100
AcDbEntity
  8
0
100
AcDbLine
 10
-357.6866199235786
 20
446.5427692751374
 30
0.0
 11
-357.6866199235787
 21
451.5427692685373
 31
0.0
  0
LINE
  5
23AF6
330
18
100
AcDbEntity
  8
0
100
AcDbLine
 10
-357.68269661994
 20
446.7704556901329
 30
0.0
 11
-358.4176397488472
 21
446.8960385558841
 31
0.0
  0
LINE
  5
23AF7
330
18
100
AcDbEntity
  8
0
100
AcDbLine
 10
-358.2753375764509
 20
448.9202493333353
 30
0.0
 11
-359.4591909721537
 21
449.1198368686013
 31
0.0
  0
LINE
  5
23AF8
330
18
100
AcDbEntity
  8
0
100
AcDbLine
 10
-357.6835328252003
 20
449.1704555444581
 30
0.0
 11
-358.4184759541075
 21
449.2960384102093
 31
0.0
  0
ARC
  5
23AF9
330
18
100
AcDbEntity
  8
0
100
AcDbCircle
 10
-184.2441937325133
 20
450.2927692701875
 30
0.0
 40
1.880656636903949
100
AcDbArc
 50
318.3436407292488
 51
41.6563592707512
  0
ARC
  5
23AFA
330
18
100
AcDbEntity
  8
0
100
AcDbCircle
 10
-181.4339486257258
 20
450.2927692701875
 30
0.0
 40
1.880656636903949
100
AcDbArc
 50
138.3436407292487
 51
221.656359270751
  0
ARC
  5
23AFB
330
18
100
AcDbEntity
  8
0
100
AcDbCircle
 10
-186.1368133319898
 20
450.2927692701875
 30
0.0
 40
1.880656636903949
100
AcDbArc
 50
318.3436407292488
 51
41.6563592707512
  0
ARC
  5
23AFC
330
18
100
AcDbEntity
  8
0
100
AcDbCircle
 10
-181.4339486257264
 20
447.7927692734875
 30
0.0
 40
1.880656636903949
100
AcDbArc
 50
138.3436407292487
 51
221.656359270751
  0
ARC
  5
23AFD
330
18
100
AcDbEntity
  8
0
100
AcDbCircle
 10
-186.1368133319898
 20
447.7927692734875
 30
0.0
 40
1.880656636903949
100
AcDbArc
 50
318.3436407292488
 51
41.6563592707512
  0
ARC
  5
23AFE
330
18
100
AcDbEntity
  8
0
100
AcDbCircle
 10
-183.3265682252021
 20
447.7927692734875
 30
0.0
 40
1.880656636903949
100
AcDbArc
 50
138.3436407292487
 51
221.656359270751
  0
LINE
  5
23B08
330
18
100
AcDbEntity
  8
0
100
AcDbLine
 10
-156.2825955267624
 20
458.5427692718398
 30
0.0
 11
-156.282595526762
 21
439.5427692718397
 31
0.0
  0
LINE
  5
23B09
330
18
100
AcDbEntity
  8
0
100
AcDbLine
 10
-161.282595526762
 20
458.5427692718398
 30
0.0
 11
-161.282595526762
 21
439.5427692718397
 31
0.0
  0
LINE
  5
23B0A
330
18
100
AcDbEntity
  8
0
100
AcDbLine
 10
-158.282595526762
 20
458.5427692718398
 30
0.0
 11
-158.282595526762
 21
439.5427692718397
 31
0.0
  0
ARC
  5
23B0B
330
18
100
AcDbEntity
  8
0
100
AcDbCircle
 10
-160.4563356705108
 20
453.7927692718396
 30
0.0
 40
7.848428098993441
100
AcDbArc
 50
150.4309251395753
 51
209.5690748604245
  0
LINE
  5
23B0C
330
18
100
AcDbEntity
  8
0
100
AcDbLine
 10
-168.282595526762
 20
457.3713407004108
 30
0.0
 11
-168.282595526762
 21
449.0427692718397
 31
0.0
  0
LINE
  5
23B0D
330
18
100
AcDbEntity
  8
0
100
AcDbLine
 10
-171.782595526762
 20
453.2713407004108
 30
0.0
 11
-171.782595526762
 21
444.8141978432686
 31
0.0
  0
LINE
  5
23B0F
330
18
100
AcDbEntity
  8
0
100
AcDbLine
 10
-153.282595526762
 20
458.0427692718374
 30
0.0
 11
-153.282595526762
 21
439.0427692718374
 31
0.0
  0
LINE
  5
23B12
330
18
100
AcDbEntity
  8
0
100
AcDbLine
 10
-158.282595526762
 20
439.5427692718397
 30
0.0
 11
-161.282595526762
 21
439.5427692718397
 31
0.0
  0
LINE
  5
23B13
330
18
100
AcDbEntity
  8
0
100
AcDbLine
 10
-167.2825955267621
 20
448.1657526180476
 30
0.0
 11
-167.2825955267621
 21
449.9197859256319
 31
0.0
  0
LINE
  5
23B14
330
18
100
AcDbEntity
  8
0
100
AcDbLine
 10
-167.2825955267621
 20
439.5427692718397
 30
0.0
 11
-171.782595526762
 21
444.8141978432688
 31
0.0
  0
LINE
  5
23B15
330
18
100
AcDbEntity
  8
0
100
AcDbLine
 10
-167.2825955267621
 20
440.4197859256322
 30
0.0
 11
-167.2825955267621
 21
439.5427692718397
 31
0.0
  0
LINE
  5
23B16
330
18
100
AcDbEntity
  8
0
100
AcDbLine
 10
-168.282595526762
 20
440.7141978432683
 30
0.0
 11
-168.282595526762
 21
449.0427692718397
 31
0.0
  0
ARC
  5
23B17
330
18
100
AcDbEntity
  8
0
100
AcDbCircle
 10
-160.4563356705108
 20
444.29276927184
 30
0.0
 40
7.848428098993441
100
AcDbArc
 50
150.4309251395753
 51
209.5690748604245
  0
LINE
  5
23B18
330
18
100
AcDbEntity
  8
0
100
AcDbLine
 10
-161.282595526762
 20
439.5427692718397
 30
0.0
 11
-167.2825955267621
 21
439.5427692718397
 31
0.0
  0
LINE
  5
23B19
330
18
100
AcDbEntity
  8
0
100
AcDbLine
 10
-167.2825955267621
 20
440.4197859256322
 30
0.0
 11
-161.282595526762
 21
440.4197859256322
 31
0.0
  0
LINE
  5
23B1A
330
18
100
AcDbEntity
  8
0
100
AcDbLine
 10
-167.2825955267621
 20
449.9197859256319
 30
0.0
 11
-161.282595526762
 21
449.9197859256319
 31
0.0
  0
LINE
  5
23B1B
330
18
100
AcDbEntity
  8
0
100
AcDbLine
 10
-167.2825955267621
 20
448.1657526180476
 30
0.0
 11
-161.282595526762
 21
448.1657526180476
 31
0.0
  0
LINE
  5
23B1E
330
18
100
AcDbEntity
  8
0
100
AcDbLine
 10
-153.2825955267623
 20
439.5427692718397
 30
0.0
 11
-156.282595526762
 21
439.5427692718397
 31
0.0
  0
LINE
  5
23B1F
330
18
100
AcDbEntity
  8
0
100
AcDbLine
 10
-156.282595526762
 20
441.6427692718393
 30
0.0
 11
-158.282595526762
 21
441.6427692718393
 31
0.0
  0
LINE
  5
23B25
330
18
100
AcDbEntity
  8
0
100
AcDbLine
 10
-158.282595526762
 20
458.5427692718351
 30
0.0
 11
-161.282595526762
 21
458.5427692718351
 31
0.0
  0
LINE
  5
23B26
330
18
100
AcDbEntity
  8
0
100
AcDbLine
 10
-161.282595526762
 20
458.5427692718398
 30
0.0
 11
-167.2825955267621
 21
458.5427692718398
 31
0.0
  0
LINE
  5
23B27
330
18
100
AcDbEntity
  8
0
100
AcDbLine
 10
-167.2825955267621
 20
458.5427692718398
 30
0.0
 11
-171.782595526762
 21
453.2713407004108
 31
0.0
  0
LINE
  5
23B28
330
18
100
AcDbEntity
  8
0
100
AcDbLine
 10
-167.2825955267621
 20
457.6657526180474
 30
0.0
 11
-167.2825955267621
 21
458.5427692718398
 31
0.0
  0
LINE
  5
23B29
330
18
100
AcDbEntity
  8
0
100
AcDbLine
 10
-167.2825955267621
 20
457.6657526180474
 30
0.0
 11
-161.282595526762
 21
457.6657526180474
 31
0.0
  0
LINE
  5
23B2A
330
18
100
AcDbEntity
  8
0
100
AcDbLine
 10
-156.282595526762
 20
456.4427692718393
 30
0.0
 11
-158.282595526762
 21
456.4427692718393
 31
0.0
  0
LINE
  5
23B2B
330
18
100
AcDbEntity
  8
0
100
AcDbLine
 10
-153.282595526762
 20
458.5427692718398
 30
0.0
 11
-156.282595526762
 21
458.5427692718398
 31
0.0
  0
LINE
  5
23B54
330
18
100
AcDbEntity
  8
0
100
AcDbLine
 10
252.7174044732374
 20
439.0427692718374
 30
0.0
 11
49.71740447323753
 21
439.0427692718374
 31
0.0
  0
LINE
  5
23B5B
330
18
100
AcDbEntity
  8
0
100
AcDbLine
 10
-153.282595526762
 20
439.0427692718376
 30
0.0
 11
49.71740447323789
 21
439.0427692718374
 31
0.0
  0
LINE
  5
23BD3
330
18
100
AcDbEntity
  8
破線
  6
HIDDEN
100
AcDbLine
 10
17.21740447323748
 20
543.5427692718374
 30
0.0
 11
17.21740447323691
 21
440.5427692718374
 31
0.0
  0
LINE
  5
23BD8
330
18
100
AcDbEntity
  8
破線
  6
HIDDEN
100
AcDbLine
 10
82.21740447323771
 20
543.5427692718374
 30
0.0
 11
82.21740447323771
 21
440.5427692718371
 31
0.0
  0
LINE
  5
23C86
330
18
100
AcDbEntity
  8
0
100
AcDbLine
 10
252.2174044732376
 20
537.7427692718375
 30
0.0
 11
252.2174044732373
 21
460.3427692718375
 31
0.0
  0
LINE
  5
23C8E
330
18
100
AcDbEntity
  8
0
100
AcDbLine
 10
252.7174044732374
 20
458.0427692718374
 30
0.0
 11
252.7174044732374
 21
439.0427692718374
 31
0.0
  0
ARC
  5
23CB0
330
18
100
AcDbEntity
  8
0
100
AcDbCircle
 10
251.7174044732374
 20
458.0427692718374
 30
0.0
 40
1.0
100
AcDbArc
 50
0.0
 51
90.0
  0
LINE
  5
23CB1
330
18
100
AcDbEntity
  8
0
100
AcDbLine
 10
251.7174044732374
 20
459.0427692718375
 30
0.0
 11
249.7174044732374
 21
459.0427692718375
 31
0.0
  0
LINE
  5
23CDA
330
18
100
AcDbEntity
  8
0
100
AcDbLine
 10
49.71740447323789
 20
539.2427692718373
 30
0.0
 11
-151.282595526762
 21
539.2427692718373
 31
0.0
  0
LINE
  5
23CDB
330
18
100
AcDbEntity
  8
0
100
AcDbLine
 10
49.71740447323789
 20
538.7427692718373
 30
0.0
 11
-151.782595526762
 21
538.7427692718374
 31
0.0
  0
LINE
  5
23D08
330
18
100
AcDbEntity
  8
0
100
AcDbLine
 10
179.2174044732376
 20
543.5427692718374
 30
0.0
 11
49.71740447323765
 21
543.5427692718374
 31
0.0
  0
LINE
  5
23D0B
330
18
100
AcDbEntity
  8
0
100
AcDbLine
 10
-79.78259552676212
 20
543.5427692718374
 30
0.0
 11
49.71740447323776
 21
543.5427692718374
 31
0.0
  0
LINE
  5
23D12
330
18
100
AcDbEntity
  8
0
100
AcDbLine
 10
49.71740447323789
 20
540.5427692718374
 30
0.0
 11
-100.282595526762
 21
540.5427692718374
 31
0.0
  0
LINE
  5
23D1D
330
18
100
AcDbEntity
  8
0
100
AcDbLine
 10
-100.2825955267621
 20
539.2427692718373
 30
0.0
 11
-100.2825955267621
 21
540.5427692718374
 31
0.0
  0
LINE
  5
23D2A
330
18
100
AcDbEntity
  8
0
100
AcDbLine
 10
-80.28259552676212
 20
543.0427692718374
 30
0.0
 11
-80.28259552676212
 21
540.5427692718374
 31
0.0
  0
LINE
  5
23D65
330
18
100
AcDbEntity
  8
0
100
AcDbLine
 10
49.71740447323796
 20
538.7427692718373
 30
0.0
 11
251.2174044732375
 21
538.7427692718373
 31
0.0
  0
LINE
  5
23D66
330
18
100
AcDbEntity
  8
0
100
AcDbLine
 10
49.71740447323789
 20
539.2427692718373
 30
0.0
 11
250.7174044732374
 21
539.2427692718373
 31
0.0
  0
LINE
  5
23DA0
330
18
100
AcDbEntity
  8
0
100
AcDbLine
 10
49.71740447323782
 20
540.5427692718374
 30
0.0
 11
199.7174044732376
 21
540.5427692718374
 31
0.0
  0
LINE
  5
23DAE
330
18
100
AcDbEntity
  8
0
100
AcDbLine
 10
179.7174044732376
 20
543.0427692718374
 30
0.0
 11
179.7174044732376
 21
540.5427692718374
 31
0.0
  0
LINE
  5
23DB5
330
18
100
AcDbEntity
  8
0
100
AcDbLine
 10
199.7174044732376
 20
539.2427692718373
 30
0.0
 11
199.7174044732376
 21
540.5427692718374
 31
0.0
  0
LINE
  5
23DC8
330
18
100
AcDbEntity
  8
0
100
AcDbLine
 10
250.7174044732374
 20
539.2427692718373
 30
0.0
 11
250.7174044732374
 21
538.7427692718373
 31
0.0
  0
LINE
  5
23F85
330
18
100
AcDbEntity
  8
0
100
AcDbLine
 10
-152.782595526762
 20
537.7427692718375
 30
0.0
 11
-152.782595526762
 21
460.3427692718375
 31
0.0
  0
LINE
  5
23FA4
330
18
100
AcDbEntity
  8
0
100
AcDbLine
 10
-153.282595526762
 20
439.0427692718376
 30
0.0
 11
-153.282595526762
 21
458.0427692718374
 31
0.0
  0
ARC
  5
23FA5
330
18
100
AcDbEntity
  8
0
100
AcDbCircle
 10
-152.282595526762
 20
458.0427692718374
 30
0.0
 40
1.0
100
AcDbArc
 50
90.0
 51
180.0
  0
LINE
  5
23FA8
330
18
100
AcDbEntity
  8
中心線
100
AcDbLine
 10
-109.3816212937322
 20
434.0427692718375
 30
0.0
 11
-109.3816212937322
 21
464.0427692718374
 31
0.0
  0
LINE
  5
23FAE
330
18
100
AcDbEntity
  8
中心線
100
AcDbLine
 10
208.8164302402081
 20
434.0427692718375
 30
0.0
 11
208.8164302402081
 21
464.0427692718374
 31
0.0
  0
ARC
  5
23FB0
330
18
100
AcDbEntity
  8
0
100
AcDbCircle
 10
251.7174044732378
 20
458.0427692718374
 30
0.0
 40
1.0
100
AcDbArc
 50
0.0
 51
90.0
  0
LINE
  5
23FB1
330
18
100
AcDbEntity
  8
0
100
AcDbLine
 10
252.7174044732377
 20
458.0427692718374
 30
0.0
 11
252.7174044732377
 21
439.0427692718374
 31
0.0
  0
LINE
  5
23FB2
330
18
100
AcDbEntity
  8
0
100
AcDbLine
 10
-152.282595526762
 20
459.0427692718375
 30
0.0
 11
251.7174044732378
 21
459.0427692718375
 31
0.0
  0
LINE
  5
240FC
102
{ACAD_REACTORS
330
24108
102
}
330
18
100
AcDbEntity
  8
0
100
AcDbLine
 10
-379.5834870569501
 20
460.0510989567955
 30
0.0
 11
-379.5834870569501
 21
438.0510989567954
 31
0.0
  0
LINE
  5
240FD
102
{ACAD_REACTORS
330
24108
102
}
330
18
100
AcDbEntity
  8
0
100
AcDbLine
 10
-404.5834870569501
 20
460.0510989567957
 30
0.0
 11
-404.5834870569501
 21
438.0510989567956
 31
0.0
  0
LINE
  5
240FE
102
{ACAD_REACTORS
330
24108
102
}
330
18
100
AcDbEntity
  8
0
100
AcDbLine
 10
-403.5834870569498
 20
460.0510989567957
 30
0.0
 11
-403.5834870569501
 21
438.0510989567954
 31
0.0
  0
LINE
  5
240FF
102
{ACAD_REACTORS
330
24108
102
}
330
18
100
AcDbEntity
  8
0
100
AcDbLine
 10
-426.5834870569501
 20
438.0510989567954
 30
0.0
 11
-426.5834870569501
 21
460.0510989567958
 31
0.0
  0
LINE
  5
24100
102
{ACAD_REACTORS
330
24108
102
}
330
18
100
AcDbEntity
  8
0
100
AcDbLine
 10
-417.5834870569501
 20
461.5510989567956
 30
0.0
 11
-417.58348705695
 21
436.5510989567956
 31
0.0
  0
LINE
  5
24101
102
{ACAD_REACTORS
330
24108
102
}
330
18
100
AcDbEntity
  8
0
100
AcDbLine
 10
-421.5834870569501
 20
436.5510989567956
 30
0.0
 11
-421.5834870569501
 21
461.5510989567956
 31
0.0
  0
LINE
  5
24102
102
{ACAD_REACTORS
330
24108
102
}
330
18
100
AcDbEntity
  8
0
100
AcDbLine
 10
-417.58348705695
 20
438.0510989567953
 30
0.0
 11
-379.5834870569501
 21
438.0510989567954
 31
0.0
  0
LINE
  5
24103
102
{ACAD_REACTORS
330
24108
102
}
330
18
100
AcDbEntity
  8
0
100
AcDbLine
 10
-417.5834870569501
 20
436.5510989567956
 30
0.0
 11
-421.5834870569501
 21
436.5510989567956
 31
0.0
  0
LINE
  5
24104
102
{ACAD_REACTORS
330
24108
102
}
330
18
100
AcDbEntity
  8
0
100
AcDbLine
 10
-426.5834870569501
 20
438.0510989567954
 30
0.0
 11
-421.5834870569501
 21
438.0510989567954
 31
0.0
  0
LINE
  5
24105
102
{ACAD_REACTORS
330
24108
102
}
330
18
100
AcDbEntity
  8
0
100
AcDbLine
 10
-417.58348705695
 20
460.0510989567957
 30
0.0
 11
-379.5834870569501
 21
460.0510989567955
 31
0.0
  0
LINE
  5
24106
102
{ACAD_REACTORS
330
24108
102
}
330
18
100
AcDbEntity
  8
0
100
AcDbLine
 10
-421.5834870569501
 20
461.5510989567956
 30
0.0
 11
-417.5834870569501
 21
461.5510989567956
 31
0.0
  0
LINE
  5
24107
102
{ACAD_REACTORS
330
24108
102
}
330
18
100
AcDbEntity
  8
0
100
AcDbLine
 10
-426.5834870569501
 20
460.0510989567957
 30
0.0
 11
-421.5834870569501
 21
460.0510989567958
 31
0.0
  0
CIRCLE
  5
24581
330
18
100
AcDbEntity
  8
0
100
AcDbCircle
 10
49.71740447323793
 20
1015.908492925172
 30
0.0
 40
150.0
  0
CIRCLE
  5
24582
330
18
100
AcDbEntity
  8
細線
 48
5.0
100
AcDbCircle
 10
49.71740447323637
 20
1154.408492925173
 30
0.0
 40
5.0
  0
CIRCLE
  5
24583
330
18
100
AcDbEntity
  8
0
100
AcDbCircle
 10
49.71740447323637
 20
1154.408492925173
 30
0.0
 40
5.588235294117645
  0
CIRCLE
  5
24586
330
18
100
AcDbEntity
  8
細線
 48
5.0
100
AcDbCircle
 10
49.71740447323838
 20
1140.908492925172
 30
0.0
 40
3.0
  0
CIRCLE
  5
24587
330
18
100
AcDbEntity
  8
細線
 48
5.0
100
AcDbCircle
 10
29.71740447323536
 20
1050.549509076553
 30
0.0
 40
5.0
  0
CIRCLE
  5
24588
330
18
100
AcDbEntity
  8
0
100
AcDbCircle
 10
29.71740447323536
 20
1050.549509076553
 30
0.0
 40
5.588235294117645
  0
CIRCLE
  5
24589
330
18
100
AcDbEntity
  8
細線
 48
5.0
100
AcDbCircle
 10
69.71740447323525
 20
981.2674767737986
 30
0.0
 40
5.0
  0
CIRCLE
  5
2458A
330
18
100
AcDbEntity
  8
0
100
AcDbCircle
 10
69.71740447323525
 20
981.2674767737986
 30
0.0
 40
5.588235294117645
  0
CIRCLE
  5
2458B
330
18
100
AcDbEntity
  8
細線
 48
5.0
100
AcDbCircle
 10
49.71740447323793
 20
890.9084929251722
 30
0.0
 40
3.0
  0
CIRCLE
  5
2458F
330
18
100
AcDbEntity
  8
中心線
100
AcDbCircle
 10
49.71740447323793
 20
1015.908492925172
 30
0.0
 40
110.0
  0
CIRCLE
  5
24590
330
18
100
AcDbEntity
  8
0
100
AcDbCircle
 10
49.71740447323793
 20
1015.908492925172
 30
0.0
 40
130.0
  0
CIRCLE
  5
2459C
330
18
100
AcDbEntity
  8
細線
 48
5.0
100
AcDbCircle
 10
1.88197542760156
 20
900.4235513612616
 30
0.0
 40
3.0
  0
CIRCLE
  5
2459D
330
18
100
AcDbEntity
  8
細線
 48
5.0
100
AcDbCircle
 10
1.88197542760156
 20
900.4235513612616
 30
0.0
 40
2.399999999999999
  0
CIRCLE
  5
2459E
330
18
100
AcDbEntity
  8
細線
 48
5.0
100
AcDbCircle
 10
-65.76753709067303
 20
968.0730638795365
 30
0.0
 40
2.399999999999999
  0
CIRCLE
  5
245A0
330
18
100
AcDbEntity
  8
細線
 48
5.0
100
AcDbCircle
 10
-65.76753709067303
 20
968.0730638795365
 30
0.0
 40
3.0
  0
CIRCLE
  5
245A9
330
18
100
AcDbEntity
  8
細線
 48
5.0
100
AcDbCircle
 10
-75.28259552676207
 20
1015.908492925172
 30
0.0
 40
2.399999999999999
  0
CIRCLE
  5
245AA
330
18
100
AcDbEntity
  8
細線
 48
5.0
100
AcDbCircle
 10
-75.28259552676207
 20
1015.908492925172
 30
0.0
 40
3.0
  0
CIRCLE
  5
245AC
330
18
100
AcDbEntity
  8
細線
 48
5.0
100
AcDbCircle
 10
-38.67094317508042
 20
927.520145276854
 30
0.0
 40
3.0
  0
CIRCLE
  5
245AD
330
18
100
AcDbEntity
  8
細線
 48
5.0
100
AcDbCircle
 10
-38.67094317508042
 20
927.520145276854
 30
0.0
 40
2.399999999999999
  0
CIRCLE
  5
245AE
330
18
100
AcDbEntity
  8
細線
 48
5.0
100
AcDbCircle
 10
-60.28259552676207
 20
1015.908492925174
 30
0.0
 40
4.0
  0
CIRCLE
  5
245AF
330
18
100
AcDbEntity
  8
0
100
AcDbCircle
 10
-60.28259552676207
 20
1015.908492925174
 30
0.0
 40
3.277999999999998
  0
CIRCLE
  5
245B1
330
18
100
AcDbEntity
  8
細線
 48
5.0
100
AcDbCircle
 10
-65.7675370906726
 20
1063.743921970809
 30
0.0
 40
2.399999999999999
  0
CIRCLE
  5
245B3
330
18
100
AcDbEntity
  8
細線
 48
5.0
100
AcDbCircle
 10
-65.7675370906726
 20
1063.743921970809
 30
0.0
 40
3.0
  0
CIRCLE
  5
245B8
330
18
100
AcDbEntity
  8
細線
 48
5.0
100
AcDbCircle
 10
-38.67094317508019
 20
1104.29684057349
 30
0.0
 40
3.0
  0
CIRCLE
  5
245B9
330
18
100
AcDbEntity
  8
細線
 48
5.0
100
AcDbCircle
 10
-38.67094317508019
 20
1104.29684057349
 30
0.0
 40
2.399999999999999
  0
CIRCLE
  5
245BA
330
18
100
AcDbEntity
  8
0
100
AcDbCircle
 10
29.71740447323526
 20
981.2674767737986
 30
0.0
 40
5.588235294117645
  0
CIRCLE
  5
245BC
330
18
100
AcDbEntity
  8
細線
 48
5.0
100
AcDbCircle
 10
-5.282595526763542
 20
920.6456985088847
 30
0.0
 40
4.0
  0
LINE
  5
245BD
330
18
100
AcDbEntity
  8
CENTER
100
AcDbLine
 10
-1.004088374118167
 20
928.0562902778102
 30
0.0
 11
-9.533955088231435
 21
913.2821277471753
 31
0.0
  0
CIRCLE
  5
245BE
330
18
100
AcDbEntity
  8
0
100
AcDbCircle
 10
-5.282595526763542
 20
920.6456985088847
 30
0.0
 40
3.277999999999998
  0
LWPOLYLINE
  5
245C1
330
18
100
AcDbEntity
  8
細線
 48
5.0
100
AcDbPolyline
 90
        6
 70
     1
 43
0.0
 10
26.99960871133753
 20
981.2674767737986
 10
28.35850659228622
 20
978.9137966016983
 10
31.07630235418401
 20
978.9137966016983
 10
32.43520023513298
 20
981.2674767737998
 10
31.07630235418332
 20
983.6211569458999
 10
28.35850659228622
 20
983.6211569458995
  0
CIRCLE
  5
245C2
330
18
100
AcDbEntity
  8
細線
 48
5.0
100
AcDbCircle
 10
29.71740447323526
 20
981.2674767737986
 30
0.0
 40
5.0
  0
CIRCLE
  5
245C4
330
18
100
AcDbEntity
  8
0
100
AcDbCircle
 10
9.71740447323526
 20
1015.908492925176
 30
0.0
 40
5.588235294117645
  0
CIRCLE
  5
245C5
330
18
100
AcDbEntity
  8
細線
 48
5.0
100
AcDbCircle
 10
-5.282595526760927
 20
1111.171287341461
 30
0.0
 40
4.0
  0
LINE
  5
245C6
330
18
100
AcDbEntity
  8
CENTER
100
AcDbLine
 10
-1.004088374118167
 20
1103.760695572534
 30
0.0
 11
-9.533955088231664
 21
1118.534858103169
 31
0.0
  0
CIRCLE
  5
245CB
330
18
100
AcDbEntity
  8
0
100
AcDbCircle
 10
-5.282595526760927
 20
1111.171287341461
 30
0.0
 40
3.277999999999998
  0
CIRCLE
  5
245CC
330
18
100
AcDbEntity
  8
細線
 48
5.0
100
AcDbCircle
 10
1.881975427602242
 20
1131.393434489082
 30
0.0
 40
3.0
  0
CIRCLE
  5
245CD
330
18
100
AcDbEntity
  8
細線
 48
5.0
100
AcDbCircle
 10
1.881975427602242
 20
1131.393434489082
 30
0.0
 40
2.399999999999999
  0
CIRCLE
  5
245CF
330
18
100
AcDbEntity
  8
細線
 48
5.0
100
AcDbCircle
 10
9.71740447323526
 20
1015.908492925176
 30
0.0
 40
5.0
  0
LWPOLYLINE
  5
245D0
330
18
100
AcDbEntity
  8
細線
 48
5.0
100
AcDbPolyline
 90
        6
 70
     1
 43
0.0
 10
8.358506592286346
 20
1018.262173097276
 10
6.999608711337996
 20
1015.908492925176
 10
8.358506592286971
 20
1013.554812753075
 10
11.07630235418497
 20
1013.554812753076
 10
12.43520023513258
 20
1015.908492925177
 10
11.07630235418378
 20
1018.262173097276
  0
CIRCLE
  5
245DB
330
18
100
AcDbEntity
  8
細線
 48
5.0
100
AcDbCircle
 10
49.71740447323793
 20
890.9084929251722
 30
0.0
 40
2.399999999999999
  0
CIRCLE
  5
245DD
330
18
100
AcDbEntity
  8
細線
 48
5.0
100
AcDbCircle
 10
97.55283351887433
 20
900.4235513612613
 30
0.0
 40
3.0
  0
CIRCLE
  5
245DE
330
18
100
AcDbEntity
  8
細線
 48
5.0
100
AcDbCircle
 10
97.55283351887433
 20
900.4235513612613
 30
0.0
 40
2.399999999999999
  0
CIRCLE
  5
245E4
330
18
100
AcDbEntity
  8
0
100
AcDbCircle
 10
89.71740447323531
 20
1015.908492925176
 30
0.0
 40
5.588235294117645
  0
CIRCLE
  5
245E5
330
18
100
AcDbEntity
  8
細線
 48
5.0
100
AcDbCircle
 10
89.71740447323531
 20
1015.908492925176
 30
0.0
 40
5.0
  0
LWPOLYLINE
  5
245E6
330
18
100
AcDbEntity
  8
細線
 48
5.0
100
AcDbPolyline
 90
        6
 70
     1
 43
0.0
 10
91.07630235418422
 20
1013.554812753075
 10
92.43520023513269
 20
1015.908492925176
 10
91.0763023541838
 20
1018.262173097276
 10
88.35850659228571
 20
1018.262173097276
 10
86.99960871133804
 20
1015.908492925174
 10
88.35850659228686
 20
1013.554812753075
  0
LWPOLYLINE
  5
245E8
330
18
100
AcDbEntity
  8
細線
 48
5.0
100
AcDbPolyline
 90
        6
 70
     1
 43
0.0
 10
68.35850659228646
 20
978.9137966016976
 10
71.07630235418355
 20
978.9137966016976
 10
72.43520023513241
 20
981.2674767737986
 10
71.07630235418338
 20
983.6211569459004
 10
68.35850659228601
 20
983.6211569458994
 10
66.99960871133777
 20
981.2674767737986
  0
CIRCLE
  5
245E9
330
18
100
AcDbEntity
  8
0
100
AcDbCircle
 10
104.7174044732396
 20
920.645698508885
 30
0.0
 40
3.277999999999998
  0
CIRCLE
  5
245EA
330
18
100
AcDbEntity
  8
細線
 48
5.0
100
AcDbCircle
 10
104.7174044732396
 20
920.645698508885
 30
0.0
 40
4.0
  0
LINE
  5
245EB
330
18
100
AcDbEntity
  8
CENTER
100
AcDbLine
 10
100.4388973205945
 20
928.0562902778104
 30
0.0
 11
108.9687640347077
 21
913.2821277471757
 31
0.0
  0
CIRCLE
  5
245EC
330
18
100
AcDbEntity
  8
細線
 48
5.0
100
AcDbCircle
 10
69.71740447323532
 20
1050.549509076553
 30
0.0
 40
5.0
  0
LWPOLYLINE
  5
245ED
330
18
100
AcDbEntity
  8
細線
 48
5.0
100
AcDbPolyline
 90
        6
 70
     1
 43
0.0
 10
72.43520023513309
 20
1050.549509076553
 10
71.07630235418452
 20
1052.903189248654
 10
68.35850659228663
 20
1052.903189248654
 10
66.9996087113376
 20
1050.549509076553
 10
68.35850659228731
 20
1048.195828904452
 10
71.07630235418452
 20
1048.195828904453
  0
CIRCLE
  5
245EF
330
18
100
AcDbEntity
  8
0
100
AcDbCircle
 10
69.71740447323532
 20
1050.549509076553
 30
0.0
 40
5.588235294117645
  0
LWPOLYLINE
  5
245F0
330
18
100
AcDbEntity
  8
細線
 48
5.0
100
AcDbPolyline
 90
        6
 70
     1
 43
0.0
 10
31.07630235418412
 20
1052.903189248654
 10
28.35850659228697
 20
1052.903189248654
 10
26.99960871133816
 20
1050.549509076553
 10
28.3585065922873
 20
1048.195828904452
 10
31.07630235418457
 20
1048.195828904453
 10
32.43520023513281
 20
1050.549509076553
  0
CIRCLE
  5
245F1
330
18
100
AcDbEntity
  8
細線
 48
5.0
100
AcDbCircle
 10
49.71740447323838
 20
1140.908492925172
 30
0.0
 40
2.399999999999999
  0
LINE
  5
245F2
330
18
100
AcDbEntity
  8
CENTER
100
AcDbLine
 10
49.71740447323838
 20
1135.281590793018
 30
0.0
 11
49.71740447323838
 21
1145.908492925171
 31
0.0
  0
CIRCLE
  5
245F3
330
18
100
AcDbEntity
  8
0
100
AcDbCircle
 10
104.7174044732364
 20
1111.171287341461
 30
0.0
 40
3.277999999999998
  0
CIRCLE
  5
245F4
330
18
100
AcDbEntity
  8
細線
 48
5.0
100
AcDbCircle
 10
104.7174044732364
 20
1111.171287341461
 30
0.0
 40
4.0
  0
LINE
  5
245F5
330
18
100
AcDbEntity
  8
CENTER
100
AcDbLine
 10
100.4388973205945
 20
1103.760695572534
 30
0.0
 11
108.9687640347072
 21
1118.534858103169
 31
0.0
  0
CIRCLE
  5
245F6
330
18
100
AcDbEntity
  8
細線
 48
5.0
100
AcDbCircle
 10
97.55283351887433
 20
1131.393434489082
 30
0.0
 40
3.0
  0
CIRCLE
  5
245F7
330
18
100
AcDbEntity
  8
細線
 48
5.0
100
AcDbCircle
 10
97.55283351887433
 20
1131.393434489082
 30
0.0
 40
2.399999999999999
  0
CIRCLE
  5
245F9
330
18
100
AcDbEntity
  8
0
100
AcDbCircle
 10
159.7174044732375
 20
1015.908492925174
 30
0.0
 40
3.277999999999998
  0
CIRCLE
  5
245FA
330
18
100
AcDbEntity
  8
細線
 48
5.0
100
AcDbCircle
 10
159.7174044732375
 20
1015.908492925174
 30
0.0
 40
4.0
  0
CIRCLE
  5
245FB
330
18
100
AcDbEntity
  8
細線
 48
5.0
100
AcDbCircle
 10
138.1057521215566
 20
927.520145276854
 30
0.0
 40
3.0
  0
CIRCLE
  5
245FC
330
18
100
AcDbEntity
  8
細線
 48
5.0
100
AcDbCircle
 10
138.1057521215566
 20
927.520145276854
 30
0.0
 40
2.399999999999999
  0
CIRCLE
  5
245FE
330
18
100
AcDbEntity
  8
細線
 48
5.0
100
AcDbCircle
 10
165.2023460371484
 20
968.0730638795365
 30
0.0
 40
2.399999999999999
  0
CIRCLE
  5
24600
330
18
100
AcDbEntity
  8
細線
 48
5.0
100
AcDbCircle
 10
165.2023460371484
 20
968.0730638795365
 30
0.0
 40
3.0
  0
CIRCLE
  5
24606
330
18
100
AcDbEntity
  8
細線
 48
5.0
100
AcDbCircle
 10
174.7174044732381
 20
1015.908492925172
 30
0.0
 40
3.0
  0
CIRCLE
  5
24607
330
18
100
AcDbEntity
  8
細線
 48
5.0
100
AcDbCircle
 10
174.7174044732381
 20
1015.908492925172
 30
0.0
 40
2.399999999999999
  0
CIRCLE
  5
2460B
330
18
100
AcDbEntity
  8
細線
 48
5.0
100
AcDbCircle
 10
138.1057521215566
 20
1104.29684057349
 30
0.0
 40
3.0
  0
CIRCLE
  5
2460C
330
18
100
AcDbEntity
  8
細線
 48
5.0
100
AcDbCircle
 10
138.1057521215566
 20
1104.29684057349
 30
0.0
 40
2.399999999999999
  0
CIRCLE
  5
24612
330
18
100
AcDbEntity
  8
細線
 48
5.0
100
AcDbCircle
 10
165.202346037149
 20
1063.743921970808
 30
0.0
 40
2.399999999999999
  0
CIRCLE
  5
24614
330
18
100
AcDbEntity
  8
細線
 48
5.0
100
AcDbCircle
 10
165.202346037149
 20
1063.743921970808
 30
0.0
 40
3.0
  0
LWPOLYLINE
  5
24615
330
18
100
AcDbEntity
  8
細線
 48
5.0
100
AcDbPolyline
 90
        6
 70
     1
 43
0.0
 10
52.07108464533735
 20
1155.767390806122
 10
49.71740447323668
 20
1157.126288687069
 10
47.3637243011355
 20
1155.767390806121
 10
47.3637243011355
 20
1153.049595044222
 10
49.7174044732369
 20
1151.690697163274
 10
52.07108464533728
 20
1153.049595044223
  0
LINE
  5
24703
330
18
100
AcDbEntity
  8
0
100
AcDbLine
 10
-404.5834870569501
 20
925.3834929251723
 30
0.0
 11
-404.5834870569501
 21
921.1334929251723
 31
0.0
  0
LINE
  5
24704
330
18
100
AcDbEntity
  8
0
100
AcDbLine
 10
-404.5834870569501
 20
921.1334929251723
 30
0.0
 11
-403.5834870569501
 21
924.8834929251724
 31
0.0
  0
LWPOLYLINE
  5
24705
330
18
100
AcDbEntity
  8
0
100
AcDbPolyline
 90
        4
 70
     1
 43
0.0
 10
-421.5834870569501
 20
952.7334929251724
 10
-417.5834870569501
 20
952.7334929251724
 10
-417.5834870569501
 20
919.0334929251724
 10
-421.5834870569501
 20
919.0334929251724
  0
LWPOLYLINE
  5
24706
330
18
100
AcDbEntity
  8
0
100
AcDbPolyline
 90
        4
 70
     1
 43
0.0
 10
-426.5834870569501
 20
950.6334929251723
 10
-421.5834870569501
 20
950.6334929251723
 10
-421.5834870569501
 20
921.1334929251723
 10
-426.5834870569501
 20
921.1334929251723
  0
LINE
  5
24707
330
18
100
AcDbEntity
  8
0
100
AcDbLine
 10
-417.5834870569501
 20
921.1334929251723
 30
0.0
 11
-404.5834870569501
 21
921.1334929251723
 31
0.0
  0
LWPOLYLINE
  5
24708
330
18
100
AcDbEntity
  8
0
100
AcDbPolyline
 90
        4
 70
     1
 43
0.0
 10
-397.2054614340653
 20
927.1334929251723
 10
-387.2054614340654
 20
927.1334929251723
 10
-387.2054614340654
 20
944.6334929251724
 10
-397.2054614340653
 20
944.6334929251724
  0
LINE
  5
24709
330
18
100
AcDbEntity
  8
0
100
AcDbLine
 10
-403.5834870569501
 20
946.8834929251723
 30
0.0
 11
-379.5834870569501
 21
946.8834929251723
 31
0.0
  0
LINE
  5
2470A
330
18
100
AcDbEntity
  8
0
100
AcDbLine
 10
-403.5834870569501
 20
924.8834929251724
 30
0.0
 11
-379.5834870569501
 21
924.8834929251724
 31
0.0
  0
LINE
  5
2470B
330
18
100
AcDbEntity
  8
0
100
AcDbLine
 10
-404.5834870569501
 20
950.6334929251723
 30
0.0
 11
-404.5834870569501
 21
946.3834929251724
 31
0.0
  0
LINE
  5
2470C
330
18
100
AcDbEntity
  8
0
100
AcDbLine
 10
-404.5834870569501
 20
950.6334929251723
 30
0.0
 11
-403.5834870569501
 21
946.8834929251723
 31
0.0
  0
LINE
  5
2470D
330
18
100
AcDbEntity
  8
0
100
AcDbLine
 10
-404.5834870569501
 20
946.3834929251724
 30
0.0
 11
-417.5834870569501
 21
946.3834929251724
 31
0.0
  0
LINE
  5
2470E
330
18
100
AcDbEntity
  8
0
100
AcDbLine
 10
-404.5834870569501
 20
937.3834929251724
 30
0.0
 11
-417.5834870569501
 21
937.3834929251724
 31
0.0
  0
LINE
  5
2470F
330
18
100
AcDbEntity
  8
0
100
AcDbLine
 10
-404.5834870569501
 20
943.3834929251723
 30
0.0
 11
-417.5834870569501
 21
943.3834929251723
 31
0.0
  0
LINE
  5
24710
330
18
100
AcDbEntity
  8
0
100
AcDbLine
 10
-404.5834870569501
 20
940.3834929251724
 30
0.0
 11
-417.5834870569501
 21
940.3834929251724
 31
0.0
  0
LINE
  5
24711
330
18
100
AcDbEntity
  8
0
100
AcDbLine
 10
-404.5834870569501
 20
934.3834929251723
 30
0.0
 11
-417.5834870569501
 21
934.3834929251723
 31
0.0
  0
LINE
  5
24712
330
18
100
AcDbEntity
  8
0
100
AcDbLine
 10
-404.5834870569501
 20
931.3834929251724
 30
0.0
 11
-417.5834870569501
 21
931.3834929251724
 31
0.0
  0
LINE
  5
24713
330
18
100
AcDbEntity
  8
0
100
AcDbLine
 10
-404.5834870569501
 20
928.3834929251723
 30
0.0
 11
-417.5834870569501
 21
928.3834929251723
 31
0.0
  0
LINE
  5
24714
330
18
100
AcDbEntity
  8
0
100
AcDbLine
 10
-404.5834870569501
 20
925.3834929251723
 30
0.0
 11
-417.5834870569501
 21
925.3834929251723
 31
0.0
  0
LINE
  5
24715
330
18
100
AcDbEntity
  8
0
100
AcDbLine
 10
-404.5834870569501
 20
937.3834929251724
 30
0.0
 11
-404.5834870569501
 21
934.3834929251723
 31
0.0
  0
LINE
  5
24716
330
18
100
AcDbEntity
  8
0
100
AcDbLine
 10
-403.5834870569501
 20
924.8834929251724
 30
0.0
 11
-404.5834870569501
 21
925.3834929251723
 31
0.0
  0
LINE
  5
24717
330
18
100
AcDbEntity
  8
0
100
AcDbLine
 10
-404.5834870569501
 20
931.3834929251724
 30
0.0
 11
-404.5834870569501
 21
928.3834929251723
 31
0.0
  0
LINE
  5
24718
330
18
100
AcDbEntity
  8
0
100
AcDbLine
 10
-403.5834870569501
 20
946.8834929251723
 30
0.0
 11
-404.5834870569501
 21
946.3834929251724
 31
0.0
  0
LINE
  5
24719
330
18
100
AcDbEntity
  8
0
100
AcDbLine
 10
-404.5834870569501
 20
943.3834929251723
 30
0.0
 11
-404.5834870569501
 21
940.3834929251724
 31
0.0
  0
LINE
  5
2471A
330
18
100
AcDbEntity
  8
0
100
AcDbLine
 10
-404.5834870569501
 20
950.6334929251723
 30
0.0
 11
-417.5834870569501
 21
950.6334929251723
 31
0.0
  0
LWPOLYLINE
  5
2471B
330
18
100
AcDbEntity
  8
0
100
AcDbPolyline
 90
        4
 70
     1
 43
0.0
 10
-384.0834870569501
 20
939.1334929251724
 10
-379.5834870569501
 20
939.1334929251724
 10
-379.5834870569501
 20
943.6334929251724
 10
-384.0834870569501
 20
943.6334929251724
  0
TEXT
  5
2471C
330
18
100
AcDbEntity
  8
FRAME020
  6
Continuous
100
AcDbText
 10
-380.0815594940818
 20
939.1668901922459
 30
0.0
 40
3.0
  1
B1
 50
90.0
100
AcDbText
  0
LWPOLYLINE
  5
2471D
330
18
100
AcDbEntity
  8
0
100
AcDbPolyline
 90
        4
 70
     1
 43
0.0
 10
-384.0834870569501
 20
928.1334929251723
 10
-379.5834870569501
 20
928.1334929251723
 10
-379.5834870569501
 20
932.6334929251723
 10
-384.0834870569501
 20
932.6334929251723
  0
TEXT
  5
2471E
330
18
100
AcDbEntity
  8
FRAME020
  6
Continuous
100
AcDbText
 10
-380.0815594940818
 20
928.1668901922458
 30
0.0
 40
3.0
  1
B2
 50
90.0
100
AcDbText
  0
TEXT
  5
2471F
330
18
100
AcDbEntity
  8
FRAME020
  6
Continuous
100
AcDbText
 10
-391.4620048378779
 20
929.44983857705
 30
0.0
 40
4.0
  1
ＡＭＰ
 50
90.0
100
AcDbText
  0
TEXT
  5
24720
330
18
100
AcDbEntity
  8
FRAME020
  6
Continuous
100
AcDbText
 10
-387.8895406899392
 20
930.2583287538576
 30
0.0
 40
2.799999999999998
  1
0-5200
 50
90.0
100
AcDbText
  0
LINE
  5
24721
330
18
100
AcDbEntity
  8
0
100
AcDbLine
 10
-379.5834870569501
 20
946.8834929251723
 30
0.0
 11
-379.5834870569501
 21
924.8834929251724
 31
0.0
  0
LINE
  5
247BE
330
18
100
AcDbEntity
  8
0
100
AcDbLine
 10
-79.78259552676212
 20
543.5427692718374
 30
0.0
 11
-80.28259552676212
 21
543.0427692718374
 31
0.0
  0
LINE
  5
247BF
330
18
100
AcDbEntity
  8
0
100
AcDbLine
 10
179.2174044732376
 20
543.5427692718374
 30
0.0
 11
179.7174044732376
 21
543.0427692718374
 31
0.0
  0
ARC
  5
24968
330
18
100
AcDbEntity
  8
中心線
100
AcDbCircle
 10
49.24579086709111
 20
1016.381508687312
 30
0.0
 40
224.9999999999996
100
AcDbArc
 50
37.83316607713425
 51
51.82664732998827
  0
ARC
  5
24969
330
18
100
AcDbEntity
  8
中心線
100
AcDbCircle
 10
49.24438871109646
 20
1015.436879319024
 30
0.0
 40
224.9999999999996
100
AcDbArc
 50
127.833166077134
 51
141.8266473299881
  0
ARC
  5
2496A
330
18
100
AcDbEntity
  8
中心線
100
AcDbCircle
 10
50.18901807938477
 20
1015.43547716303
 30
0.0
 40
224.9999999999996
100
AcDbArc
 50
217.833166077134
 51
231.8266473299881
  0
TEXT
  5
25835
330
18
100
AcDbEntity
  8
A
100
AcDbText
 10
994.0607330628463
 20
1410.353952564317
 30
0.0
 40
2.5
  1

  7
MSｺ_ｼｯｸ
100
AcDbText
  0
TEXT
  5
25836
330
18
100
AcDbEntity
  8
A
100
AcDbText
 10
986.2357330628462
 20
1410.353952564317
 30
0.0
 40
2.5
  1

 41
0.5
  7
MSｺ_ｼｯｸ
100
AcDbText
  0
TEXT
  5
25837
330
18
100
AcDbEntity
  8
A
100
AcDbText
 10
1134.160833013216
 20
1840.320972682679
 30
0.0
 40
3.524999999999999
  1
�    
100
AcDbText
  0
MTEXT
  5
25838
330
18
100
AcDbEntity
  8
0
  6
ByBlock
100
AcDbMText
 10
1292.465721936469
 20
1858.318002276568
 30
0.0
 40
2.0
 41
0.0
 71
     4
 72
     5
  1

 11
-0.0000000000000002
 21
-1.0
 31
0.0
 73
     1
 44
1.0
1001
ACAD
1000
MTEXTBEGIN
1070
    73
1070
     1
1070
    44
1040
1.0
1070
    74
1070
     0
1000
MTEXTEND
1000
MTEXTBEGIN
1070
    73
1070
     1
1070
    44
1040
1.0
1070
    74
1070
     0
1000
MTEXTEND
  0
MTEXT
  5
25839
330
18
100
AcDbEntity
  8
0
  6
ByBlock
100
AcDbMText
 10
1327.931110299622
 20
1847.524693918151
 30
0.0
 40
2.0
 41
0.0
 71
     7
 72
     5
  1

 11
0.0000000000000001
 21
1.0
 31
0.0
 73
     1
 44
1.0
1001
ACAD
1000
MTEXTBEGIN
1070
    73
1070
     1
1070
    44
1040
1.0
1070
    74
1070
     0
1000
MTEXTEND
1000
MTEXTBEGIN
1070
    73
1070
     1
1070
    44
1040
1.0
1070
    74
1070
     0
1000
MTEXTEND
  0
MTEXT
  5
2583A
330
18
100
AcDbEntity
  8
0
100
AcDbMText
 10
1292.151612314954
 20
1772.745183375861
 30
0.0
 40
2.0
 41
10.1453
 71
     1
 72
     5
  1

 11
-0.0000000000000002
 21
-1.0
 31
0.0
 73
     1
 44
1.0
1001
ACAD
1000
MTEXTBEGIN
1070
    73
1070
     1
1070
    44
1040
1.0
1070
    74
1070
     0
1000
MTEXTEND
1000
MTEXTBEGIN
1070
    73
1070
     1
1070
    44
1040
1.0
1070
    74
1070
     0
1000
MTEXTEND
  0
MTEXT
  5
2583B
330
18
100
AcDbEntity
  8
0
100
AcDbMText
 10
1247.752120561804
 20
1741.113699782872
 30
0.0
 40
2.0
 41
0.0
 71
     1
 72
     5
  1

 73
     1
 44
1.0
1001
ACAD
1000
MTEXTBEGIN
1070
    73
1070
     1
1070
    44
1040
1.0
1070
    74
1070
     0
1000
MTEXTEND
1000
MTEXTBEGIN
1070
    73
1070
     1
1070
    44
1040
1.0
1070
    74
1070
     0
1000
MTEXTEND
  0
MTEXT
  5
2583C
330
18
100
AcDbEntity
  8
0
  6
CENTER
100
AcDbMText
 10
1573.340397745567
 20
1842.046226527297
 30
0.0
 40
2.0
 41
15.6417
 71
     1
 72
     5
  1

  7
BIGFONT
 73
     1
 44
1.0
1001
ACAD
1000
MTEXTBEGIN
1070
    73
1070
     1
1070
    44
1040
1.0
1070
    74
1070
     0
1000
MTEXTEND
1000
MTEXTBEGIN
1070
    73
1070
     1
1070
    44
1040
1.0
1070
    74
1070
     0
1000
MTEXTEND
  0
MTEXT
  5
2583D
330
18
100
AcDbEntity
  8
0
  6
DASHDOT
100
AcDbMText
 10
1335.662456801395
 20
1948.835721355074
 30
0.0
 40
1.0
 41
2.0
 71
     1
 72
     5
  1

  7
BIGFONT
 73
     1
 44
1.0
1001
ACAD
1000
MTEXTBEGIN
1070
    73
1070
     1
1070
    44
1040
1.0
1070
    74
1070
     0
1000
MTEXTEND
1000
MTEXTBEGIN
1070
    73
1070
     1
1070
    44
1040
1.0
1070
    74
1070
     0
1000
MTEXTEND
  0
MTEXT
  5
2583E
330
18
100
AcDbEntity
  8
0
  6
ByBlock
100
AcDbMText
 10
1292.465634931518
 20
1858.318002276568
 30
0.0
 40
2.0
 41
0.0
 71
     4
 72
     5
  1

 11
-0.0000000000000002
 21
-1.0
 31
0.0
 73
     1
 44
1.0
1001
ACAD
1000
MTEXTBEGIN
1070
    73
1070
     1
1070
    44
1040
1.0
1070
    74
1070
     0
1000
MTEXTEND
1000
MTEXTBEGIN
1070
    73
1070
     1
1070
    44
1040
1.0
1070
    74
1070
     0
1000
MTEXTEND
  0
MTEXT
  5
2583F
330
18
100
AcDbEntity
  8
0
  6
ByBlock
100
AcDbMText
 10
1327.931023294671
 20
1847.524693918151
 30
0.0
 40
2.0
 41
0.0
 71
     7
 72
     5
  1

 11
0.0000000000000001
 21
1.0
 31
0.0
 73
     1
 44
1.0
1001
ACAD
1000
MTEXTBEGIN
1070
    73
1070
     1
1070
    44
1040
1.0
1070
    74
1070
     0
1000
MTEXTEND
1000
MTEXTBEGIN
1070
    73
1070
     1
1070
    44
1040
1.0
1070
    74
1070
     0
1000
MTEXTEND
  0
MTEXT
  5
25840
330
18
100
AcDbEntity
  8
0
100
AcDbMText
 10
1292.151525310003
 20
1772.745183375861
 30
0.0
 40
2.0
 41
10.1453
 71
     1
 72
     5
  1

 11
-0.0000000000000002
 21
-1.0
 31
0.0
 73
     1
 44
1.0
1001
ACAD
1000
MTEXTBEGIN
1070
    73
1070
     1
1070
    44
1040
1.0
1070
    74
1070
     0
1000
MTEXTEND
1000
MTEXTBEGIN
1070
    73
1070
     1
1070
    44
1040
1.0
1070
    74
1070
     0
1000
MTEXTEND
  0
MTEXT
  5
25841
330
18
100
AcDbEntity
  8
0
100
AcDbMText
 10
1247.752033556854
 20
1741.113699782872
 30
0.0
 40
2.0
 41
0.0
 71
     1
 72
     5
  1

 73
     1
 44
1.0
1001
ACAD
1000
MTEXTBEGIN
1070
    73
1070
     1
1070
    44
1040
1.0
1070
    74
1070
     0
1000
MTEXTEND
1000
MTEXTBEGIN
1070
    73
1070
     1
1070
    44
1040
1.0
1070
    74
1070
     0
1000
MTEXTEND
  0
MTEXT
  5
25842
330
18
100
AcDbEntity
  8
0
  6
CENTER
100
AcDbMText
 10
1573.340310740617
 20
1842.046226527297
 30
0.0
 40
2.0
 41
15.6417
 71
     1
 72
     5
  1

  7
BIGFONT
 73
     1
 44
1.0
1001
ACAD
1000
MTEXTBEGIN
1070
    73
1070
     1
1070
    44
1040
1.0
1070
    74
1070
     0
1000
MTEXTEND
1000
MTEXTBEGIN
1070
    73
1070
     1
1070
    44
1040
1.0
1070
    74
1070
     0
1000
MTEXTEND
  0
MTEXT
  5
25843
330
18
100
AcDbEntity
  8
0
  6
DASHDOT
100
AcDbMText
 10
1335.662369796445
 20
1948.835721355074
 30
0.0
 40
1.0
 41
2.0
 71
     1
 72
     5
  1

  7
BIGFONT
 73
     1
 44
1.0
1001
ACAD
1000
MTEXTBEGIN
1070
    73
1070
     1
1070
    44
1040
1.0
1070
    74
1070
     0
1000
MTEXTEND
1000
MTEXTBEGIN
1070
    73
1070
     1
1070
    44
1040
1.0
1070
    74
1070
     0
1000
MTEXTEND
  0
INSERT
  5
25844
330
18
100
AcDbEntity
  8
FRAME025
100
AcDbBlockReference
  2
機械A4横_LBP
 10
1237.980239678167
 20
1632.695120267091
 30
0.0
  0
LINE
  5
26612
330
18
100
AcDbEntity
  8
２点鎖線
 48
0.5
100
AcDbLine
 10
39.69348180915455
 20
574.7127656303647
 30
0.0
 11
59.69348180915455
 21
574.7127656303647
 31
0.0
  0
LINE
  5
26613
330
18
100
AcDbEntity
  8
CENTER
100
AcDbLine
 10
73.81193514550915
 20
554.7127656303646
 30
0.0
 11
25.72951872201457
 21
554.7127656303646
 31
0.0
  0
LINE
  5
26614
330
18
100
AcDbEntity
  8
CENTER
 48
0.5
100
AcDbLine
 10
65.67319117587562
 20
531.5427692718381
 30
0.0
 11
32.87941950263432
 21
531.5427692718381
 31
0.0
  0
LINE
  5
26615
330
18
100
AcDbEntity
  8
２点鎖線
 48
0.5
100
AcDbLine
 10
66.69348180915465
 20
524.5427692718378
 30
0.0
 11
32.69348180915442
 21
524.5427692718378
 31
0.0
  0
CIRCLE
  5
26616
330
18
100
AcDbEntity
  8
２点鎖線
 48
0.5
100
AcDbCircle
 10
49.69348180923436
 20
554.7127656303644
 30
0.0
 40
10.0
  0
LINE
  5
26617
330
18
100
AcDbEntity
  8
２点鎖線
 48
0.5
100
AcDbLine
 10
29.69348180915443
 20
527.5427692718376
 30
0.0
 11
29.69348180915455
 21
564.7127656303647
 31
0.0
  0
CIRCLE
  5
26618
330
18
100
AcDbEntity
  8
２点鎖線
 48
0.5
100
AcDbCircle
 10
39.71740447323765
 20
531.5427692718381
 30
0.0
 40
4.25
  0
LINE
  5
26619
330
18
100
AcDbEntity
  8
中心線
 48
0.5
100
AcDbLine
 10
39.71740447323765
 20
537.623254472938
 30
0.0
 11
39.71740447323765
 21
525.5951412738774
 31
0.0
  0
LINE
  5
2661A
330
18
100
AcDbEntity
  8
２点鎖線
 48
0.5
100
AcDbLine
 10
32.69348180915442
 20
524.5427692718378
 30
0.0
 11
29.69348180915443
 21
527.5427692718376
 31
0.0
  0
LINE
  5
2661B
330
18
100
AcDbEntity
  8
２点鎖線
 48
0.5
100
AcDbLine
 10
39.69348180915455
 20
574.7127656303647
 30
0.0
 11
29.69348180915455
 21
564.7127656303647
 31
0.0
  0
LINE
  5
2661C
330
18
100
AcDbEntity
  8
２点鎖線
 48
0.5
100
AcDbLine
 10
69.69348180915455
 20
564.7127656303647
 30
0.0
 11
69.69348180915464
 21
527.5427692718376
 31
0.0
  0
LINE
  5
2661D
330
18
100
AcDbEntity
  8
２点鎖線
 48
0.5
100
AcDbLine
 10
66.69348180915465
 20
524.5427692718378
 30
0.0
 11
69.69348180915464
 21
527.5427692718376
 31
0.0
  0
LINE
  5
2661E
330
18
100
AcDbEntity
  8
中心線
 48
0.5
100
AcDbLine
 10
59.71740447323765
 20
537.623254472938
 30
0.0
 11
59.71740447323765
 21
525.5951412738774
 31
0.0
  0
CIRCLE
  5
2661F
330
18
100
AcDbEntity
  8
２点鎖線
 48
0.5
100
AcDbCircle
 10
59.71740447323765
 20
531.5427692718381
 30
0.0
 40
4.25
  0
LINE
  5
26620
330
18
100
AcDbEntity
  8
２点鎖線
 48
0.5
100
AcDbLine
 10
69.69348180915455
 20
564.7127656303647
 30
0.0
 11
59.69348180915455
 21
574.7127656303647
 31
0.0
  0
LINE
  5
26643
102
{ACAD_REACTORS
330
26661
102
}
330
18
100
AcDbEntity
  8
仮想線
 48
0.5
100
AcDbLine
 10
64.04679408851811
 20
806.6084982327247
 30
0.0
 11
64.04679408851811
 21
801.908498232725
 31
0.0
  0
LINE
  5
26644
102
{ACAD_REACTORS
330
26661
102
}
330
18
100
AcDbEntity
  8
仮想線
  6
ByBlock
 48
0.5
100
AcDbLine
 10
69.79679408851857
 20
813.4085034984737
 30
0.0
 11
29.79679408851855
 21
813.4084824354797
 31
0.0
  0
LINE
  5
26645
102
{ACAD_REACTORS
330
26661
102
}
330
18
100
AcDbEntity
  8
仮想線
 48
0.5
100
AcDbLine
 10
69.79679408851879
 20
808.908503498473
 30
0.0
 11
29.7967940885181
 21
808.9084824354793
 31
0.0
  0
LINE
  5
26646
102
{ACAD_REACTORS
330
26661
102
}
330
18
100
AcDbEntity
  8
仮想線
 48
0.5
100
AcDbLine
 10
64.31740447323758
 20
806.6084982327247
 30
0.0
 11
55.11740447323776
 21
806.6084982327247
 31
0.0
  0
LINE
  5
26647
102
{ACAD_REACTORS
330
26661
102
}
330
18
100
AcDbEntity
  8
仮想線
 48
0.5
100
AcDbLine
 10
59.71740447323767
 20
807.9084982327239
 30
0.0
 11
54.71740447323767
 21
807.908498232725
 31
0.0
  0
LINE
  5
26648
102
{ACAD_REACTORS
330
26661
102
}
330
18
100
AcDbEntity
  8
仮想線
 48
0.5
100
AcDbLine
 10
35.11740447323798
 20
806.6084982327247
 30
0.0
 11
44.31740447323781
 21
806.6084982327247
 31
0.0
  0
LINE
  5
26649
102
{ACAD_REACTORS
330
26661
102
}
330
18
100
AcDbEntity
  8
仮想線
 48
0.5
100
AcDbLine
 10
39.71740447323767
 20
807.9084982327239
 30
0.0
 11
44.7174044732379
 21
807.908498232725
 31
0.0
  0
LINE
  5
2664A
102
{ACAD_REACTORS
330
26661
102
}
330
18
100
AcDbEntity
  8
仮想線
 48
0.5
100
AcDbLine
 10
35.68801485795765
 20
801.6084982327248
 30
0.0
 11
43.58801485795727
 21
801.6084982327248
 31
0.0
  0
LINE
  5
2664B
102
{ACAD_REACTORS
330
26661
102
}
330
18
100
AcDbEntity
  8
仮想線
  6
ByBlock
 48
0.5
100
AcDbLine
 10
29.7967940885181
 20
808.9084824354793
 30
0.0
 11
29.79679408851855
 21
813.4084824354797
 31
0.0
  0
LINE
  5
2664C
102
{ACAD_REACTORS
330
26661
102
}
330
18
100
AcDbEntity
  8
仮想線
 48
0.5
100
AcDbLine
 10
34.71740447323812
 20
808.908498232725
 30
0.0
 11
34.7174044732379
 21
807.908498232725
 31
0.0
  0
LINE
  5
2664D
102
{ACAD_REACTORS
330
26661
102
}
330
18
100
AcDbEntity
  8
仮想線
 48
0.5
100
AcDbLine
 10
35.11740447323798
 20
807.9084982327245
 30
0.0
 11
35.11740447323798
 21
806.6084982327247
 31
0.0
  0
LINE
  5
2664E
102
{ACAD_REACTORS
330
26661
102
}
330
18
100
AcDbEntity
  8
仮想線
 48
0.5
100
AcDbLine
 10
34.7174044732379
 20
807.908498232725
 30
0.0
 11
39.71740447323767
 21
807.9084982327241
 31
0.0
  0
LINE
  5
2664F
102
{ACAD_REACTORS
330
26661
102
}
330
18
100
AcDbEntity
  8
仮想線
 48
0.5
100
AcDbLine
 10
35.68801485795765
 20
801.6084982327248
 30
0.0
 11
35.38801485795746
 21
801.908498232725
 31
0.0
  0
LINE
  5
26650
102
{ACAD_REACTORS
330
26661
102
}
330
18
100
AcDbEntity
  8
仮想線
 48
0.5
100
AcDbLine
 10
35.38801485795746
 20
806.6084982327247
 30
0.0
 11
35.38801485795746
 21
801.908498232725
 31
0.0
  0
LINE
  5
26651
102
{ACAD_REACTORS
330
26661
102
}
330
18
100
AcDbEntity
  8
仮想線
 48
0.5
100
AcDbLine
 10
44.7174044732379
 20
808.908498232725
 30
0.0
 11
44.7174044732379
 21
807.908498232725
 31
0.0
  0
LINE
  5
26652
102
{ACAD_REACTORS
330
26661
102
}
330
18
100
AcDbEntity
  8
仮想線
 48
0.5
100
AcDbLine
 10
44.31740447323781
 20
807.9084982327245
 30
0.0
 11
44.31740447323781
 21
806.6084982327247
 31
0.0
  0
LINE
  5
26653
102
{ACAD_REACTORS
330
26661
102
}
330
18
100
AcDbEntity
  8
仮想線
 48
0.5
100
AcDbLine
 10
54.71740447323767
 20
808.908498232725
 30
0.0
 11
54.71740447323767
 21
807.908498232725
 31
0.0
  0
LINE
  5
26654
102
{ACAD_REACTORS
330
26661
102
}
330
18
100
AcDbEntity
  8
仮想線
 48
0.5
100
AcDbLine
 10
55.11740447323776
 20
807.9084982327245
 30
0.0
 11
55.11740447323776
 21
806.6084982327247
 31
0.0
  0
LINE
  5
26655
102
{ACAD_REACTORS
330
26661
102
}
330
18
100
AcDbEntity
  8
仮想線
 48
0.5
100
AcDbLine
 10
43.88801485795745
 20
801.9084982327246
 30
0.0
 11
43.58801485795727
 21
801.6084982327248
 31
0.0
  0
LINE
  5
26656
102
{ACAD_REACTORS
330
26661
102
}
330
18
100
AcDbEntity
  8
仮想線
 48
0.5
100
AcDbLine
 10
43.88801485795745
 20
806.6084982327247
 30
0.0
 11
43.88801485795745
 21
801.9084982327246
 31
0.0
  0
LINE
  5
26657
102
{ACAD_REACTORS
330
26661
102
}
330
18
100
AcDbEntity
  8
仮想線
 48
0.5
100
AcDbLine
 10
63.74679408851792
 20
801.6084982327248
 30
0.0
 11
64.04679408851811
 21
801.908498232725
 31
0.0
  0
LINE
  5
26658
102
{ACAD_REACTORS
330
26661
102
}
330
18
100
AcDbEntity
  8
仮想線
 48
0.5
100
AcDbLine
 10
64.71740447323745
 20
808.908498232725
 30
0.0
 11
64.71740447323767
 21
807.908498232725
 31
0.0
  0
LINE
  5
26659
102
{ACAD_REACTORS
330
26661
102
}
330
18
100
AcDbEntity
  8
仮想線
 48
0.5
100
AcDbLine
 10
64.31740447323758
 20
807.9084982327245
 30
0.0
 11
64.31740447323758
 21
806.6084982327247
 31
0.0
  0
LINE
  5
2665A
102
{ACAD_REACTORS
330
26661
102
}
330
18
100
AcDbEntity
  8
仮想線
 48
0.5
100
AcDbLine
 10
64.71740447323767
 20
807.908498232725
 30
0.0
 11
59.71740447323767
 21
807.9084982327239
 31
0.0
  0
LINE
  5
2665B
102
{ACAD_REACTORS
330
26661
102
}
330
18
100
AcDbEntity
  8
仮想線
 48
0.5
100
AcDbLine
 10
55.54679408851811
 20
801.9084982327246
 30
0.0
 11
55.84679408851829
 21
801.6084982327248
 31
0.0
  0
LINE
  5
2665C
102
{ACAD_REACTORS
330
26661
102
}
330
18
100
AcDbEntity
  8
仮想線
 48
0.5
100
AcDbLine
 10
63.74679408851792
 20
801.6084982327248
 30
0.0
 11
55.84679408851829
 21
801.6084982327248
 31
0.0
  0
LINE
  5
2665D
102
{ACAD_REACTORS
330
26661
102
}
330
18
100
AcDbEntity
  8
仮想線
 48
0.5
100
AcDbLine
 10
55.54679408851811
 20
806.6084982327247
 30
0.0
 11
55.54679408851811
 21
801.9084982327246
 31
0.0
  0
LINE
  5
2665E
102
{ACAD_REACTORS
330
26661
102
}
330
18
100
AcDbEntity
  8
仮想線
 48
0.5
100
AcDbLine
 10
69.79679408851857
 20
813.4085034984737
 30
0.0
 11
69.79679408851879
 21
808.908503498473
 31
0.0
  0
LINE
  5
2665F
102
{ACAD_REACTORS
330
26661
102
}
330
18
100
AcDbEntity
  8
中心線
 48
0.5
100
AcDbLine
 10
59.71740447323743
 20
823.9414975510216
 30
0.0
 11
59.71740447323767
 21
798.8506345088494
 31
0.0
  0
LINE
  5
26660
102
{ACAD_REACTORS
330
26661
102
}
330
18
100
AcDbEntity
  8
中心線
 48
0.5
100
AcDbLine
 10
39.7174044732379
 20
823.9414975510216
 30
0.0
 11
39.7174044732379
 21
798.8506345088494
 31
0.0
  0
LINE
  5
26662
102
{ACAD_REACTORS
330
26680
102
}
330
18
100
AcDbEntity
  8
仮想線
 48
0.5
100
AcDbLine
 10
39.71740447323829
 20
1223.90848761762
 30
0.0
 11
44.71740447323829
 21
1223.908487617619
 31
0.0
  0
LINE
  5
26663
102
{ACAD_REACTORS
330
26680
102
}
330
18
100
AcDbEntity
  8
仮想線
 48
0.5
100
AcDbLine
 10
35.11740447323838
 20
1225.208487617619
 30
0.0
 11
44.3174044732382
 21
1225.208487617619
 31
0.0
  0
LINE
  5
26664
102
{ACAD_REACTORS
330
26680
102
}
330
18
100
AcDbEntity
  8
仮想線
 48
0.5
100
AcDbLine
 10
29.63801485795718
 20
1222.908482351871
 30
0.0
 11
69.63801485795787
 21
1222.908503414865
 31
0.0
  0
LINE
  5
26665
102
{ACAD_REACTORS
330
26680
102
}
330
18
100
AcDbEntity
  8
仮想線
 48
0.5
100
AcDbLine
 10
35.68801485795804
 20
1230.208487617619
 30
0.0
 11
43.58801485795768
 21
1230.208487617619
 31
0.0
  0
LINE
  5
26666
102
{ACAD_REACTORS
330
26680
102
}
330
18
100
AcDbEntity
  8
仮想線
  6
ByBlock
 48
0.5
100
AcDbLine
 10
29.63801485795739
 20
1218.408482351869
 30
0.0
 11
69.63801485795741
 21
1218.408503414864
 31
0.0
  0
LINE
  5
26667
102
{ACAD_REACTORS
330
26680
102
}
330
18
100
AcDbEntity
  8
仮想線
 48
0.5
100
AcDbLine
 10
63.74679408851832
 20
1230.208487617619
 30
0.0
 11
55.84679408851869
 21
1230.208487617619
 31
0.0
  0
LINE
  5
26668
102
{ACAD_REACTORS
330
26680
102
}
330
18
100
AcDbEntity
  8
仮想線
 48
0.5
100
AcDbLine
 10
59.71740447323829
 20
1223.90848761762
 30
0.0
 11
54.71740447323806
 21
1223.908487617619
 31
0.0
  0
LINE
  5
26669
102
{ACAD_REACTORS
330
26680
102
}
330
18
100
AcDbEntity
  8
仮想線
 48
0.5
100
AcDbLine
 10
64.31740447323797
 20
1225.208487617619
 30
0.0
 11
55.11740447323814
 21
1225.208487617619
 31
0.0
  0
LINE
  5
2666A
102
{ACAD_REACTORS
330
26680
102
}
330
18
100
AcDbEntity
  8
仮想線
 48
0.5
100
AcDbLine
 10
64.04679408851851
 20
1225.208487617619
 30
0.0
 11
64.04679408851851
 21
1229.908487617619
 31
0.0
  0
LINE
  5
2666B
102
{ACAD_REACTORS
330
26680
102
}
330
18
100
AcDbEntity
  8
仮想線
 48
0.5
100
AcDbLine
 10
63.74679408851832
 20
1230.208487617619
 30
0.0
 11
64.04679408851851
 21
1229.908487617619
 31
0.0
  0
LINE
  5
2666C
102
{ACAD_REACTORS
330
26680
102
}
330
18
100
AcDbEntity
  8
仮想線
 48
0.5
100
AcDbLine
 10
64.71740447323806
 20
1223.908487617619
 30
0.0
 11
59.71740447323829
 21
1223.90848761762
 31
0.0
  0
LINE
  5
2666D
102
{ACAD_REACTORS
330
26680
102
}
330
18
100
AcDbEntity
  8
仮想線
 48
0.5
100
AcDbLine
 10
64.31740447323797
 20
1223.908487617619
 30
0.0
 11
64.31740447323797
 21
1225.208487617619
 31
0.0
  0
LINE
  5
2666E
102
{ACAD_REACTORS
330
26680
102
}
330
18
100
AcDbEntity
  8
仮想線
 48
0.5
100
AcDbLine
 10
64.71740447323785
 20
1222.908487617619
 30
0.0
 11
64.71740447323806
 21
1223.908487617619
 31
0.0
  0
LINE
  5
2666F
102
{ACAD_REACTORS
330
26680
102
}
330
18
100
AcDbEntity
  8
仮想線
  6
ByBlock
 48
0.5
100
AcDbLine
 10
69.63801485795787
 20
1222.908503414865
 30
0.0
 11
69.63801485795741
 21
1218.408503414864
 31
0.0
  0
LINE
  5
26670
102
{ACAD_REACTORS
330
26680
102
}
330
18
100
AcDbEntity
  8
仮想線
 48
0.5
100
AcDbLine
 10
43.88801485795784
 20
1225.208487617619
 30
0.0
 11
43.88801485795785
 21
1229.90848761762
 31
0.0
  0
LINE
  5
26671
102
{ACAD_REACTORS
330
26680
102
}
330
18
100
AcDbEntity
  8
仮想線
 48
0.5
100
AcDbLine
 10
43.88801485795785
 20
1229.90848761762
 30
0.0
 11
43.58801485795768
 21
1230.208487617619
 31
0.0
  0
LINE
  5
26672
102
{ACAD_REACTORS
330
26680
102
}
330
18
100
AcDbEntity
  8
仮想線
 48
0.5
100
AcDbLine
 10
55.5467940885185
 20
1225.208487617619
 30
0.0
 11
55.5467940885185
 21
1229.90848761762
 31
0.0
  0
LINE
  5
26673
102
{ACAD_REACTORS
330
26680
102
}
330
18
100
AcDbEntity
  8
仮想線
 48
0.5
100
AcDbLine
 10
55.5467940885185
 20
1229.90848761762
 30
0.0
 11
55.84679408851869
 21
1230.208487617619
 31
0.0
  0
LINE
  5
26674
102
{ACAD_REACTORS
330
26680
102
}
330
18
100
AcDbEntity
  8
仮想線
 48
0.5
100
AcDbLine
 10
44.3174044732382
 20
1223.908487617619
 30
0.0
 11
44.3174044732382
 21
1225.208487617619
 31
0.0
  0
LINE
  5
26675
102
{ACAD_REACTORS
330
26680
102
}
330
18
100
AcDbEntity
  8
仮想線
 48
0.5
100
AcDbLine
 10
44.71740447323829
 20
1222.908487617619
 30
0.0
 11
44.71740447323829
 21
1223.908487617619
 31
0.0
  0
LINE
  5
26676
102
{ACAD_REACTORS
330
26680
102
}
330
18
100
AcDbEntity
  8
仮想線
 48
0.5
100
AcDbLine
 10
55.11740447323814
 20
1223.908487617619
 30
0.0
 11
55.11740447323814
 21
1225.208487617619
 31
0.0
  0
LINE
  5
26677
102
{ACAD_REACTORS
330
26680
102
}
330
18
100
AcDbEntity
  8
仮想線
 48
0.5
100
AcDbLine
 10
54.71740447323806
 20
1222.908487617619
 30
0.0
 11
54.71740447323806
 21
1223.908487617619
 31
0.0
  0
LINE
  5
26678
102
{ACAD_REACTORS
330
26680
102
}
330
18
100
AcDbEntity
  8
仮想線
 48
0.5
100
AcDbLine
 10
29.63801485795739
 20
1218.408482351869
 30
0.0
 11
29.63801485795718
 21
1222.908482351871
 31
0.0
  0
LINE
  5
26679
102
{ACAD_REACTORS
330
26680
102
}
330
18
100
AcDbEntity
  8
仮想線
 48
0.5
100
AcDbLine
 10
34.7174044732383
 20
1223.908487617619
 30
0.0
 11
39.71740447323829
 21
1223.90848761762
 31
0.0
  0
LINE
  5
2667A
102
{ACAD_REACTORS
330
26680
102
}
330
18
100
AcDbEntity
  8
仮想線
 48
0.5
100
AcDbLine
 10
35.11740447323838
 20
1223.908487617619
 30
0.0
 11
35.11740447323838
 21
1225.208487617619
 31
0.0
  0
LINE
  5
2667B
102
{ACAD_REACTORS
330
26680
102
}
330
18
100
AcDbEntity
  8
仮想線
 48
0.5
100
AcDbLine
 10
34.71740447323852
 20
1222.908487617619
 30
0.0
 11
34.7174044732383
 21
1223.908487617619
 31
0.0
  0
LINE
  5
2667C
102
{ACAD_REACTORS
330
26680
102
}
330
18
100
AcDbEntity
  8
仮想線
 48
0.5
100
AcDbLine
 10
35.68801485795804
 20
1230.208487617619
 30
0.0
 11
35.38801485795785
 21
1229.908487617619
 31
0.0
  0
LINE
  5
2667D
102
{ACAD_REACTORS
330
26680
102
}
330
18
100
AcDbEntity
  8
仮想線
 48
0.5
100
AcDbLine
 10
35.38801485795785
 20
1225.208487617619
 30
0.0
 11
35.38801485795785
 21
1229.908487617619
 31
0.0
  0
LINE
  5
2667E
102
{ACAD_REACTORS
330
26680
102
}
330
18
100
AcDbEntity
  8
中心線
 48
0.5
100
AcDbLine
 10
59.71740447323806
 20
1207.875488299323
 30
0.0
 11
59.71740447323806
 21
1232.966351341493
 31
0.0
  0
LINE
  5
2667F
102
{ACAD_REACTORS
330
26680
102
}
330
18
100
AcDbEntity
  8
中心線
 48
0.5
100
AcDbLine
 10
39.71740447323851
 20
1207.875488299323
 30
0.0
 11
39.7174044732383
 21
1232.966351341493
 31
0.0
  0
SOLID
  5
26A2D
330
18
100
AcDbEntity
  8
0
  6
ByBlock
 62
     0
100
AcDbTrace
 10
-95.78259552676206
 20
1018.217894005172
 30
0.0
 11
-99.78259552676206
 21
1015.908492925172
 31
0.0
 12
-95.78259552676206
 22
1013.599091845172
 32
0.0
 13
-95.78259552676206
 23
1013.599091845172
 33
0.0
  0
SOLID
  5
26A2E
330
18
100
AcDbEntity
  8
0
  6
ByBlock
 62
     0
100
AcDbTrace
 10
-104.782595526762
 20
1018.217894005172
 30
0.0
 11
-100.782595526762
 21
1015.908492925172
 31
0.0
 12
-104.782595526762
 22
1013.599091845172
 32
0.0
 13
-104.782595526762
 23
1013.599091845172
 33
0.0
  0
LINE
  5
26F44
330
18
100
AcDbEntity
  8
中心線
100
AcDbLine
 10
605.5155639446293
 20
803.4084929251719
 30
0.0
 11
605.5155639446293
 21
1228.408492925171
 31
0.0
  0
LINE
  5
26F45
330
18
100
AcDbEntity
  8
0
100
AcDbLine
 10
808.5155639446325
 20
862.9084929251687
 30
0.0
 11
808.5155639446325
 21
1168.908492925174
 31
0.0
  0
LINE
  5
26F46
330
18
100
AcDbEntity
  8
0
100
AcDbLine
 10
402.5155639446263
 20
1168.908492925175
 30
0.0
 11
402.5155639446263
 21
862.9084929251687
 31
0.0
  0
LINE
  5
26F48
330
18
100
AcDbEntity
  8
0
100
AcDbLine
 10
452.5155639446263
 20
812.9084929251687
 30
0.0
 11
758.5155639446326
 21
812.9084929251687
 31
0.0
  0
LINE
  5
26F49
330
18
100
AcDbEntity
  8
中心線
100
AcDbLine
 10
818.0155639446294
 20
1015.908492925172
 30
0.0
 11
393.0155639446293
 21
1015.908492925172
 31
0.0
  0
CIRCLE
  5
26F4C
330
18
100
AcDbEntity
  8
0
100
AcDbCircle
 10
446.416538177656
 20
856.8094671581986
 30
0.0
 40
8.5
  0
ARC
  5
26F4D
330
18
100
AcDbEntity
  8
中心線
100
AcDbCircle
 10
605.5155639446293
 20
1015.908492925172
 30
0.0
 40
225.0
100
AcDbArc
 50
220.6699551863043
 51
229.3300448136956
  0
LINE
  5
26F4E
330
18
100
AcDbEntity
  8
中心線
100
AcDbLine
 10
434.3957228974848
 20
844.7886518780277
 30
0.0
 11
458.4373534578274
 21
868.8302824383702
 31
0.0
  0
ARC
  5
26F5E
330
18
100
AcDbEntity
  8
0
100
AcDbCircle
 10
395.4801121337736
 20
946.2952945347424
 30
0.0
 40
9.015903847971632
100
AcDbArc
 50
185.5496147837551
 51
207.8304203210879
  0
LINE
  5
26F5F
330
18
100
AcDbEntity
  8
0
100
AcDbLine
 10
387.5062632853881
 20
946.5949902330223
 30
0.0
 11
383.0071816862494
 21
941.3227777991423
 31
0.0
  0
LINE
  5
26F60
330
18
100
AcDbEntity
  8
0
100
AcDbLine
 10
387.5099216834578
 20
925.5949905516862
 30
0.0
 11
383.0090034191661
 21
930.8656351006794
 31
0.0
  0
ARC
  5
26F61
330
18
100
AcDbEntity
  8
0
100
AcDbCircle
 10
395.483665628215
 20
925.8974644710892
 30
0.0
 40
9.015903847971632
100
AcDbArc
 50
152.1895426094165
 51
174.4703481467429
  0
ARC
  5
26F62
330
18
100
AcDbEntity
  8
0
100
AcDbCircle
 10
397.0080923402656
 20
936.0966453819575
 30
0.0
 40
10.50000000000042
100
AcDbArc
 50
154.8012161684953
 51
205.2187467620091
  0
LINE
  5
26F63
330
18
100
AcDbEntity
  8
0
100
AcDbLine
 10
386.5064673744683
 20
945.4233874699376
 30
0.0
 11
386.5097176247262
 21
926.766244895907
 31
0.0
  0
LINE
  5
26F64
330
18
100
AcDbEntity
  8
0
100
AcDbLine
 10
370.9924003919298
 20
934.1050989034567
 30
0.0
 11
383.0331419722107
 21
934.1050989034567
 31
0.0
  0
LINE
  5
26F65
330
18
100
AcDbEntity
  8
0
100
AcDbLine
 10
370.9924003919293
 20
938.1050989034566
 30
0.0
 11
383.0331419722107
 21
938.1050989034566
 31
0.0
  0
ARC
  5
26F66
330
18
100
AcDbEntity
  8
0
100
AcDbCircle
 10
372.1164984349673
 20
935.1050989038569
 30
0.0
 40
1.504525310907321
100
AcDbArc
 50
138.3436407292487
 51
221.656359270751
  0
ARC
  5
26F67
330
18
100
AcDbEntity
  8
0
100
AcDbCircle
 10
369.868302347469
 20
937.1050989030564
 30
0.0
 40
1.504525310907321
100
AcDbArc
 50
318.3436407292488
 51
41.6563592707512
  0
ARC
  5
26F68
330
18
100
AcDbEntity
  8
0
100
AcDbCircle
 10
372.1164984349667
 20
937.1050989030564
 30
0.0
 40
1.504525310907321
100
AcDbArc
 50
138.3436407292487
 51
221.656359270751
  0
LINE
  5
26F69
330
18
100
AcDbEntity
  8
0
100
AcDbLine
 10
383.0071816862494
 20
941.3227777991423
 30
0.0
 11
383.0090034191661
 21
930.8656351006794
 31
0.0
  0
LINE
  5
26F6A
330
18
100
AcDbEntity
  8
0
100
AcDbLine
 10
398.5062631184686
 20
946.5969065367737
 30
0.0
 11
398.5099215165386
 21
925.5969068554373
 31
0.0
  0
LINE
  5
26F6B
330
18
100
AcDbEntity
  8
0
100
AcDbLine
 10
401.5099214710146
 20
925.5974294837328
 30
0.0
 11
401.5062630729446
 21
946.5974291650692
 31
0.0
  0
LINE
  5
26F6C
330
18
100
AcDbEntity
  8
0
100
AcDbLine
 10
393.5062631943408
 20
946.5960354896139
 30
0.0
 11
393.5099215924108
 21
925.5960358082775
 31
0.0
  0
LINE
  5
26F6D
330
18
100
AcDbEntity
  8
0
100
AcDbLine
 10
396.5097473374557
 20
926.596558421399
 30
0.0
 11
396.5064373582493
 21
945.5965581330842
 31
0.0
  0
LINE
  5
26F6E
330
18
100
AcDbEntity
  8
0
100
AcDbLine
 10
401.5073131837156
 20
940.5695652115383
 30
0.0
 11
398.5073132292393
 21
940.5690425832428
 31
0.0
  0
LINE
  5
26F6F
330
18
100
AcDbEntity
  8
0
100
AcDbLine
 10
401.5070485530726
 20
942.0886025919402
 30
0.0
 11
398.5070485985965
 21
942.0880799636448
 31
0.0
  0
LINE
  5
26F70
330
18
100
AcDbEntity
  8
0
100
AcDbLine
 10
401.5099214710146
 20
925.5974294837328
 30
0.0
 11
398.5099215165386
 21
925.5969068554373
 31
0.0
  0
LINE
  5
26F71
330
18
100
AcDbEntity
  8
0
100
AcDbLine
 10
398.5091360364106
 20
930.1057334285662
 30
0.0
 11
401.5091359908868
 21
930.106256056862
 31
0.0
  0
LINE
  5
26F72
330
18
100
AcDbEntity
  8
0
100
AcDbLine
 10
398.5088714057676
 20
931.6247708089679
 30
0.0
 11
401.5088713602438
 21
931.6252934372638
 31
0.0
  0
LINE
  5
26F73
330
18
100
AcDbEntity
  8
0
100
AcDbLine
 10
387.5070487655156
 20
942.0861636598935
 30
0.0
 11
387.5073133961585
 21
940.5671262794921
 31
0.0
  0
LINE
  5
26F74
330
18
100
AcDbEntity
  8
0
100
AcDbLine
 10
393.5073133051117
 20
940.5681715360833
 30
0.0
 11
387.5073133961585
 21
940.5671262794918
 31
0.0
  0
LINE
  5
26F75
330
18
100
AcDbEntity
  8
0
100
AcDbLine
 10
393.5070486744688
 20
942.0872089164854
 30
0.0
 11
387.5070487655156
 21
942.0861636598935
 31
0.0
  0
LINE
  5
26F76
330
18
100
AcDbEntity
  8
0
100
AcDbLine
 10
398.5093814672996
 20
928.6969068083967
 30
0.0
 11
396.5093814976486
 21
928.6965583895328
 31
0.0
  0
LINE
  5
26F77
330
18
100
AcDbEntity
  8
0
100
AcDbLine
 10
393.5099215924108
 20
925.5960358082775
 30
0.0
 11
387.5099216834578
 21
925.5949905516862
 31
0.0
  0
LINE
  5
26F78
330
18
100
AcDbEntity
  8
0
100
AcDbLine
 10
387.5088715726868
 20
931.6228545052172
 30
0.0
 11
387.5091362033298
 21
930.1038171248151
 31
0.0
  0
LINE
  5
26F79
330
18
100
AcDbEntity
  8
0
100
AcDbLine
 10
387.5091362033298
 20
930.1038171248151
 30
0.0
 11
393.509136112283
 21
930.1048623814065
 31
0.0
  0
LINE
  5
26F7A
330
18
100
AcDbEntity
  8
0
100
AcDbLine
 10
387.5088715726868
 20
931.6228545052167
 30
0.0
 11
393.5088714816401
 21
931.6238997618082
 31
0.0
  0
LINE
  5
26F7B
330
18
100
AcDbEntity
  8
0
100
AcDbLine
 10
396.5097473374557
 20
926.596558421399
 30
0.0
 11
393.5097473829789
 21
926.5960357931032
 31
0.0
  0
LINE
  5
26F7C
330
18
100
AcDbEntity
  8
0
100
AcDbLine
 10
402.509660141693
 20
927.0976036704032
 30
0.0
 11
401.5096601568666
 21
927.0974294609711
 31
0.0
  0
LINE
  5
26F7D
330
18
100
AcDbEntity
  8
0
100
AcDbLine
 10
401.5062630729446
 20
946.5974291650692
 30
0.0
 11
398.5062631184686
 21
946.5969065367737
 31
0.0
  0
LINE
  5
26F7E
330
18
100
AcDbEntity
  8
0
100
AcDbLine
 10
398.5068031677075
 20
943.4969065838147
 30
0.0
 11
396.5068031980564
 21
943.496558164951
 31
0.0
  0
LINE
  5
26F7F
330
18
100
AcDbEntity
  8
0
100
AcDbLine
 10
393.5062631943408
 20
946.5960354896139
 30
0.0
 11
387.5062632853876
 21
946.5949902330223
 31
0.0
  0
LINE
  5
26F80
330
18
100
AcDbEntity
  8
0
100
AcDbLine
 10
396.5064373582493
 20
945.5965581330842
 30
0.0
 11
393.5064374037726
 21
945.5960355047883
 31
0.0
  0
LINE
  5
26F81
330
18
100
AcDbEntity
  8
0
100
AcDbLine
 10
402.5065243719184
 20
945.0976033972626
 30
0.0
 11
401.5065243870926
 21
945.0974291878308
 31
0.0
  0
ARC
  5
26F87
330
18
100
AcDbEntity
  8
0
100
AcDbCircle
 10
395.4801121337736
 20
1105.895294534742
 30
0.0
 40
9.015903847971632
100
AcDbArc
 50
185.5496147837551
 51
207.8304203210879
  0
LINE
  5
26F88
330
18
100
AcDbEntity
  8
0
100
AcDbLine
 10
387.5062632853881
 20
1106.194990233022
 30
0.0
 11
383.0071816862494
 21
1100.922777799142
 31
0.0
  0
LINE
  5
26F89
330
18
100
AcDbEntity
  8
0
100
AcDbLine
 10
387.5099216834578
 20
1085.194990551686
 30
0.0
 11
383.0090034191661
 21
1090.465635100679
 31
0.0
  0
ARC
  5
26F8A
330
18
100
AcDbEntity
  8
0
100
AcDbCircle
 10
395.483665628215
 20
1085.497464471089
 30
0.0
 40
9.015903847971632
100
AcDbArc
 50
152.1895426094165
 51
174.4703481467429
  0
ARC
  5
26F8B
330
18
100
AcDbEntity
  8
0
100
AcDbCircle
 10
397.0080923402656
 20
1095.696645381956
 30
0.0
 40
10.50000000000042
100
AcDbArc
 50
154.8012161684953
 51
205.2187467620091
  0
ARC
  5
26F8C
330
18
100
AcDbEntity
  8
0
100
AcDbCircle
 10
371.5557952338151
 20
1096.955096158262
 30
0.0
 40
1.880656636903949
100
AcDbArc
 50
318.3436407292488
 51
41.6563592707512
  0
LINE
  5
26F8D
330
18
100
AcDbEntity
  8
0
100
AcDbLine
 10
383.0173934395665
 20
1093.205096163213
 30
0.0
 11
372.9609177872083
 21
1093.205096163213
 31
0.0
  0
LINE
  5
26F8E
330
18
100
AcDbEntity
  8
0
100
AcDbLine
 10
383.0173934395665
 20
1098.205096156613
 30
0.0
 11
372.960917787209
 21
1098.205096156613
 31
0.0
  0
ARC
  5
26F8F
330
18
100
AcDbEntity
  8
0
100
AcDbCircle
 10
374.3660403406021
 20
1094.455096161563
 30
0.0
 40
1.880656636903949
100
AcDbArc
 50
138.3436407292487
 51
221.656359270751
  0
ARC
  5
26F90
330
18
100
AcDbEntity
  8
0
100
AcDbCircle
 10
374.3660403406027
 20
1096.955096158262
 30
0.0
 40
1.880656636903949
100
AcDbArc
 50
138.3436407292487
 51
221.656359270751
  0
LINE
  5
26F91
330
18
100
AcDbEntity
  8
0
100
AcDbLine
 10
386.5064673744683
 20
1105.023387469937
 30
0.0
 11
386.5097176247262
 21
1086.366244895906
 31
0.0
  0
LINE
  5
26F92
330
18
100
AcDbEntity
  8
0
100
AcDbLine
 10
383.0071816862494
 20
1100.922777799142
 30
0.0
 11
383.0090034191661
 21
1090.465635100679
 31
0.0
  0
LINE
  5
26F96
330
18
100
AcDbEntity
  8
0
100
AcDbLine
 10
401.5062630729446
 20
1106.197429165069
 30
0.0
 11
398.5062631184686
 21
1106.196906536773
 31
0.0
  0
LINE
  5
26F97
330
18
100
AcDbEntity
  8
0
100
AcDbLine
 10
401.5073131837156
 20
1100.169565211537
 30
0.0
 11
398.5073132292393
 21
1100.169042583242
 31
0.0
  0
LINE
  5
26F98
330
18
100
AcDbEntity
  8
0
100
AcDbLine
 10
401.5070485530726
 20
1101.68860259194
 30
0.0
 11
398.5070485985965
 21
1101.688079963643
 31
0.0
  0
LINE
  5
26F99
330
18
100
AcDbEntity
  8
0
100
AcDbLine
 10
401.5099214710146
 20
1085.197429483732
 30
0.0
 11
398.5099215165386
 21
1085.196906855437
 31
0.0
  0
LINE
  5
26F9A
330
18
100
AcDbEntity
  8
0
100
AcDbLine
 10
398.5091360364106
 20
1089.705733428566
 30
0.0
 11
401.5091359908868
 21
1089.706256056862
 31
0.0
  0
LINE
  5
26F9B
330
18
100
AcDbEntity
  8
0
100
AcDbLine
 10
398.5088714057676
 20
1091.224770808967
 30
0.0
 11
401.5088713602438
 21
1091.225293437263
 31
0.0
  0
LINE
  5
26F9C
330
18
100
AcDbEntity
  8
0
100
AcDbLine
 10
398.5068031677075
 20
1103.096906583813
 30
0.0
 11
396.5068031980564
 21
1103.096558164951
 31
0.0
  0
LINE
  5
26F9D
330
18
100
AcDbEntity
  8
0
100
AcDbLine
 10
393.5062631943408
 20
1106.196035489614
 30
0.0
 11
387.5062632853876
 21
1106.194990233022
 31
0.0
  0
LINE
  5
26F9E
330
18
100
AcDbEntity
  8
0
100
AcDbLine
 10
387.5070487655156
 20
1101.686163659893
 30
0.0
 11
387.5073133961585
 21
1100.16712627949
 31
0.0
  0
LINE
  5
26F9F
330
18
100
AcDbEntity
  8
0
100
AcDbLine
 10
393.5073133051117
 20
1100.168171536082
 30
0.0
 11
387.5073133961585
 21
1100.16712627949
 31
0.0
  0
LINE
  5
26FA0
330
18
100
AcDbEntity
  8
0
100
AcDbLine
 10
393.5070486744688
 20
1101.687208916484
 30
0.0
 11
387.5070487655156
 21
1101.686163659893
 31
0.0
  0
LINE
  5
26FA1
330
18
100
AcDbEntity
  8
0
100
AcDbLine
 10
396.5064373582493
 20
1105.196558133084
 30
0.0
 11
393.5064374037726
 21
1105.196035504788
 31
0.0
  0
LINE
  5
26FA2
330
18
100
AcDbEntity
  8
0
100
AcDbLine
 10
398.5093814672996
 20
1088.296906808396
 30
0.0
 11
396.5093814976486
 21
1088.296558389532
 31
0.0
  0
LINE
  5
26FA3
330
18
100
AcDbEntity
  8
0
100
AcDbLine
 10
393.5099215924108
 20
1085.196035808277
 30
0.0
 11
387.5099216834578
 21
1085.194990551686
 31
0.0
  0
LINE
  5
26FA4
330
18
100
AcDbEntity
  8
0
100
AcDbLine
 10
387.5088715726868
 20
1091.222854505216
 30
0.0
 11
387.5091362033298
 21
1089.703817124815
 31
0.0
  0
LINE
  5
26FA5
330
18
100
AcDbEntity
  8
0
100
AcDbLine
 10
387.5091362033298
 20
1089.703817124815
 30
0.0
 11
393.509136112283
 21
1089.704862381406
 31
0.0
  0
LINE
  5
26FA6
330
18
100
AcDbEntity
  8
0
100
AcDbLine
 10
387.5088715726868
 20
1091.222854505216
 30
0.0
 11
393.5088714816401
 21
1091.223899761808
 31
0.0
  0
LINE
  5
26FA7
330
18
100
AcDbEntity
  8
0
100
AcDbLine
 10
396.5097473374557
 20
1086.196558421399
 30
0.0
 11
393.5097473829789
 21
1086.196035793103
 31
0.0
  0
LINE
  5
26FA8
330
18
100
AcDbEntity
  8
0
100
AcDbLine
 10
398.5062631184686
 20
1106.196906536773
 30
0.0
 11
398.5099215165386
 21
1085.196906855437
 31
0.0
  0
LINE
  5
26FA9
330
18
100
AcDbEntity
  8
0
100
AcDbLine
 10
393.5062631943408
 20
1106.196035489614
 30
0.0
 11
393.5099215924108
 21
1085.196035808277
 31
0.0
  0
LINE
  5
26FAA
330
18
100
AcDbEntity
  8
0
100
AcDbLine
 10
396.5097473374557
 20
1086.196558421399
 30
0.0
 11
396.5064373582493
 21
1105.196558133084
 31
0.0
  0
LINE
  5
26FAB
330
18
100
AcDbEntity
  8
0
100
AcDbLine
 10
402.5065243719184
 20
1104.697603397261
 30
0.0
 11
401.5065243870926
 21
1104.697429187831
 31
0.0
  0
LINE
  5
26FAC
330
18
100
AcDbEntity
  8
0
100
AcDbLine
 10
402.509660141693
 20
1086.697603670403
 30
0.0
 11
401.5096601568666
 21
1086.697429460971
 31
0.0
  0
LINE
  5
26FAD
330
18
100
AcDbEntity
  8
0
100
AcDbLine
 10
401.5099214710146
 20
1085.197429483732
 30
0.0
 11
401.5062630729446
 21
1106.197429165069
 31
0.0
  0
LINE
  5
26FCC
330
18
100
AcDbEntity
  8
中心線
100
AcDbLine
 10
776.6354049917738
 20
844.7886518780277
 30
0.0
 11
752.5937744314314
 21
868.8302824383702
 31
0.0
  0
ARC
  5
26FCD
330
18
100
AcDbEntity
  8
中心線
100
AcDbCircle
 10
605.5155639446293
 20
1015.908492925172
 30
0.0
 40
225.0
100
AcDbArc
 50
310.6699551863043
 51
319.3300448136956
  0
LINE
  5
26FD0
102
{ACAD_REACTORS
330
288E2
102
}
330
18
100
AcDbEntity
  8
中心線
 48
0.5
100
AcDbLine
 10
595.5155639446295
 20
819.8776210927363
 30
0.0
 11
595.5155639446295
 21
798.8506503478998
 31
0.0
  0
LINE
  5
26FD1
102
{ACAD_REACTORS
330
288E2
102
}
330
18
100
AcDbEntity
  8
中心線
 48
0.5
100
AcDbLine
 10
615.5155639446291
 20
819.8776210927359
 30
0.0
 11
615.5155639446295
 21
798.8506503478996
 31
0.0
  0
LINE
  5
26FD4
102
{ACAD_REACTORS
330
288E2
102
}
330
18
100
AcDbEntity
  8
仮想線
100
AcDbLine
 10
585.436174329348
 20
808.9085193375233
 30
0.0
 11
625.4361743293491
 21
808.9084982745292
 31
0.0
  0
LINE
  5
26FD5
102
{ACAD_REACTORS
330
288E2
102
}
330
18
100
AcDbEntity
  8
仮想線
100
AcDbLine
 10
590.5949542444574
 20
807.9085088060264
 30
0.0
 11
595.5949542444574
 21
807.9085088060264
 31
0.0
  0
LINE
  5
26FD6
102
{ACAD_REACTORS
330
288E2
102
}
330
18
100
AcDbEntity
  8
仮想線
100
AcDbLine
 10
590.9949542444572
 20
806.6085088060262
 30
0.0
 11
600.1949542444569
 21
806.6085088060262
 31
0.0
  0
LINE
  5
26FD7
102
{ACAD_REACTORS
330
288E2
102
}
330
18
100
AcDbEntity
  8
仮想線
100
AcDbLine
 10
599.5449542444572
 20
801.6085088060263
 30
0.0
 11
591.6449542444578
 21
801.6085088060263
 31
0.0
  0
LINE
  5
26FD8
102
{ACAD_REACTORS
330
288E2
102
}
330
18
100
AcDbEntity
  8
仮想線
100
AcDbLine
 10
590.9949542444572
 20
807.9085088060264
 30
0.0
 11
590.9949542444572
 21
806.6085088060262
 31
0.0
  0
LINE
  5
26FD9
102
{ACAD_REACTORS
330
288E2
102
}
330
18
100
AcDbEntity
  8
仮想線
100
AcDbLine
 10
590.5949542444574
 20
808.9085088060265
 30
0.0
 11
590.5949542444574
 21
807.9085088060264
 31
0.0
  0
LINE
  5
26FDA
102
{ACAD_REACTORS
330
288E2
102
}
330
18
100
AcDbEntity
  8
仮想線
100
AcDbLine
 10
591.3449542444574
 20
806.6085088060262
 30
0.0
 11
591.3449542444574
 21
801.9085088060258
 31
0.0
  0
LINE
  5
26FDB
102
{ACAD_REACTORS
330
288E2
102
}
330
18
100
AcDbEntity
  8
仮想線
100
AcDbLine
 10
591.3449542444574
 20
801.9085088060258
 30
0.0
 11
591.6449542444578
 21
801.6085088060263
 31
0.0
  0
LINE
  5
26FDC
102
{ACAD_REACTORS
330
288E2
102
}
330
18
100
AcDbEntity
  8
仮想線
100
AcDbLine
 10
585.4361743293488
 20
812.9084929251687
 30
0.0
 11
585.436174329348
 21
808.9085193375233
 31
0.0
  0
LINE
  5
26FDE
102
{ACAD_REACTORS
330
288E2
102
}
330
18
100
AcDbEntity
  8
仮想線
100
AcDbLine
 10
600.1949542444574
 20
807.9085088060264
 30
0.0
 11
600.1949542444569
 21
806.6085088060262
 31
0.0
  0
LINE
  5
26FDF
102
{ACAD_REACTORS
330
288E2
102
}
330
18
100
AcDbEntity
  8
仮想線
100
AcDbLine
 10
600.5949542444574
 20
808.9085088060265
 30
0.0
 11
600.5949542444574
 21
807.9085088060264
 31
0.0
  0
LINE
  5
26FE0
102
{ACAD_REACTORS
330
288E2
102
}
330
18
100
AcDbEntity
  8
仮想線
100
AcDbLine
 10
599.5449542444572
 20
801.6085088060263
 30
0.0
 11
599.8449542444574
 21
801.9085088060265
 31
0.0
  0
LINE
  5
26FE1
102
{ACAD_REACTORS
330
288E2
102
}
330
18
100
AcDbEntity
  8
仮想線
100
AcDbLine
 10
599.8449542444574
 20
806.6085088060262
 30
0.0
 11
599.8449542444574
 21
801.9085088060265
 31
0.0
  0
LINE
  5
26FE2
102
{ACAD_REACTORS
330
288E2
102
}
330
18
100
AcDbEntity
  8
仮想線
100
AcDbLine
 10
595.5949542444574
 20
807.908508806026
 30
0.0
 11
600.5949542444574
 21
807.9085088060264
 31
0.0
  0
LINE
  5
26FE3
102
{ACAD_REACTORS
330
288E2
102
}
330
18
100
AcDbEntity
  8
仮想線
100
AcDbLine
 10
610.8361736448013
 20
807.9085088060264
 30
0.0
 11
610.8361736448016
 21
806.6085088060262
 31
0.0
  0
LINE
  5
26FE4
102
{ACAD_REACTORS
330
288E2
102
}
330
18
100
AcDbEntity
  8
仮想線
100
AcDbLine
 10
610.436173644801
 20
808.9085088060263
 30
0.0
 11
610.436173644801
 21
807.9085088060264
 31
0.0
  0
LINE
  5
26FE5
102
{ACAD_REACTORS
330
288E2
102
}
330
18
100
AcDbEntity
  8
仮想線
100
AcDbLine
 10
611.4861736448013
 20
801.6085088060261
 30
0.0
 11
611.1861736448011
 21
801.9085088060263
 31
0.0
  0
LINE
  5
26FE6
102
{ACAD_REACTORS
330
288E2
102
}
330
18
100
AcDbEntity
  8
仮想線
100
AcDbLine
 10
611.1861736448011
 20
806.6085088060262
 30
0.0
 11
611.1861736448011
 21
801.9085088060263
 31
0.0
  0
LINE
  5
26FE7
102
{ACAD_REACTORS
330
288E2
102
}
330
18
100
AcDbEntity
  8
仮想線
100
AcDbLine
 10
615.4361736448009
 20
807.9085088060256
 30
0.0
 11
610.436173644801
 21
807.9085088060264
 31
0.0
  0
LINE
  5
26FE8
102
{ACAD_REACTORS
330
288E2
102
}
330
18
100
AcDbEntity
  8
仮想線
100
AcDbLine
 10
620.0361736448013
 20
807.9085088060264
 30
0.0
 11
620.0361736448013
 21
806.6085088060262
 31
0.0
  0
LINE
  5
26FE9
102
{ACAD_REACTORS
330
288E2
102
}
330
18
100
AcDbEntity
  8
仮想線
100
AcDbLine
 10
620.4361736448011
 20
808.9085088060263
 30
0.0
 11
620.4361736448011
 21
807.9085088060264
 31
0.0
  0
LINE
  5
26FEA
102
{ACAD_REACTORS
330
288E2
102
}
330
18
100
AcDbEntity
  8
仮想線
100
AcDbLine
 10
619.6861736448011
 20
801.9085088060258
 30
0.0
 11
619.3861736448009
 21
801.6085088060261
 31
0.0
  0
LINE
  5
26FEB
102
{ACAD_REACTORS
330
288E2
102
}
330
18
100
AcDbEntity
  8
仮想線
100
AcDbLine
 10
619.6861736448011
 20
806.6085088060262
 30
0.0
 11
619.6861736448011
 21
801.9085088060258
 31
0.0
  0
LINE
  5
26FEC
102
{ACAD_REACTORS
330
288E2
102
}
330
18
100
AcDbEntity
  8
仮想線
100
AcDbLine
 10
620.4361736448011
 20
807.9085088060264
 30
0.0
 11
615.4361736448009
 21
807.9085088060264
 31
0.0
  0
LINE
  5
26FED
102
{ACAD_REACTORS
330
288E2
102
}
330
18
100
AcDbEntity
  8
仮想線
100
AcDbLine
 10
620.0361736448013
 20
806.6085088060262
 30
0.0
 11
610.8361736448016
 21
806.6085088060262
 31
0.0
  0
LINE
  5
26FEE
102
{ACAD_REACTORS
330
288E2
102
}
330
18
100
AcDbEntity
  8
仮想線
100
AcDbLine
 10
611.4861736448013
 20
801.6085088060261
 30
0.0
 11
619.3861736448009
 21
801.6085088060261
 31
0.0
  0
LINE
  5
26FEF
102
{ACAD_REACTORS
330
288E2
102
}
330
18
100
AcDbEntity
  8
仮想線
100
AcDbLine
 10
625.4361743293491
 20
808.9084982745292
 30
0.0
 11
625.4361743293478
 21
812.9084929251687
 31
0.0
  0
ARC
  5
26FF0
330
18
100
AcDbEntity
  8
中心線
100
AcDbCircle
 10
605.5155639446293
 20
1015.908492925172
 30
0.0
 40
195.5
100
AcDbArc
 50
292.6681725786418
 51
307.3318274213581
  0
LINE
  5
26FF4
330
18
100
AcDbEntity
  8
DIMENSION
  6
ByBlock
 62
     0
100
AcDbLine
 10
699.8014623294917
 20
844.6005264853138
 30
0.0
 11
706.7296655597671
 21
848.6005264853137
 31
0.0
  0
HATCH
  5
26FF5
330
18
100
AcDbEntity
  8
DIMENSION
  6
ByBlock
 62
     0
100
AcDbHatch
 10
0.0
 20
0.0
 30
0.0
210
0.0
220
0.0
230
1.0
  2
ANSI31
 70
     0
 71
     0
 91
        4
 92
        7
 72
     1
 73
     1
 93
        3
 10
699.670729200095
 20
848.354710956654
 42
0.0088242164717323
 10
703.2655639446292
 20
846.6005264853137
 42
0.0
 10
699.8014623294913
 20
844.6005264853138
 42
-0.2493796996436278
 97
        0
 92
        7
 72
     1
 73
     1
 93
        3
 10
703.2655639446292
 20
846.6005264853137
 42
-0.0088242164717323
 10
699.670729200095
 20
848.354710956654
 42
-0.1494012440317256
 10
701.2655639446293
 20
850.0646281004518
 42
0.0
 97
        0
 92
        7
 72
     1
 73
     1
 93
        3
 10
703.2655639446292
 20
846.6005264853137
 42
0.0
 10
706.7296655597671
 20
848.6005264853137
 42
-0.2400272838228544
 10
706.920062443762
 20
844.9742913486145
 42
-0.0088242164717324
 97
        0
 92
        7
 72
     1
 73
     1
 93
        3
 10
706.920062443762
 20
844.9742913486145
 42
-0.1584343322340092
 10
705.2655639446292
 20
843.1364248701763
 42
0.0
 10
703.2655639446292
 20
846.6005264853137
 42
0.0088242164717324
 97
        0
 75
     0
 76
     1
 52
409.9999999999998
 41
1.333333333333333
 77
     0
 78
     1
 53
255.0
 43
136.2090945178449
 44
1021.563084625936
 45
-0.1609876377148447
 46
0.0431365075170868
 79
     0
 47
0.0130930922504628
 98
        4
 10
699.8313866476485
 20
846.977607036357
 10
701.2731400516784
 20
848.4956317519131
 10
705.3810187595977
 20
846.6527283066557
 10
705.9397142473113
 20
844.777253310626
  0
LINE
  5
26FF6
330
18
100
AcDbEntity
  8
中心線
100
AcDbLine
 10
699.2782869327417
 20
853.5487008065272
 30
0.0
 11
707.2782869327417
 21
839.6922943459763
 31
0.0
  0
LINE
  5
26FF7
330
18
100
AcDbEntity
  8
DIMENSION
  6
ByBlock
 62
     0
100
AcDbLine
 10
701.2655639446293
 20
850.0646281004518
 30
0.0
 11
705.2655639446292
 21
843.1364248701763
 31
0.0
  0
CIRCLE
  5
26FF8
330
18
100
AcDbEntity
  8
0
100
AcDbCircle
 10
703.2655639446292
 20
846.6005264853141
 30
0.0
 40
4.0
  0
CIRCLE
  5
26FF9
330
18
100
AcDbEntity
  8
0
100
AcDbCircle
 10
764.6145897116026
 20
856.8094671581986
 30
0.0
 40
8.5
  0
CIRCLE
  5
27001
330
18
100
AcDbEntity
  8
0
100
AcDbCircle
 10
605.5155639446293
 20
1015.908492925172
 30
0.0
 40
32.5
  0
LINE
  5
27061
330
18
100
AcDbEntity
  8
0
100
AcDbLine
 10
758.5155639446326
 20
1218.908492925175
 30
0.0
 11
452.5155639446264
 21
1218.908492925175
 31
0.0
  0
CIRCLE
  5
27068
330
18
100
AcDbEntity
  8
0
100
AcDbCircle
 10
446.416538177656
 20
1175.007518692144
 30
0.0
 40
8.5
  0
LINE
  5
27069
330
18
100
AcDbEntity
  8
中心線
100
AcDbLine
 10
434.3957228974849
 20
1187.028333972316
 30
0.0
 11
458.4373534578275
 21
1162.986703411972
 31
0.0
  0
ARC
  5
2706A
330
18
100
AcDbEntity
  8
中心線
100
AcDbCircle
 10
605.5155639446293
 20
1015.908492925172
 30
0.0
 40
225.0
100
AcDbArc
 50
130.6699551863042
 51
139.3300448136955
  0
ARC
  5
27070
330
18
100
AcDbEntity
  8
中心線
100
AcDbCircle
 10
605.5155639446293
 20
1015.908492925172
 30
0.0
 40
195.5
100
AcDbArc
 50
112.6681725786419
 51
127.3318274213581
  0
HATCH
  5
27077
330
18
100
AcDbEntity
  8
DIMENSION
  6
ByBlock
 62
     0
100
AcDbHatch
 10
0.0
 20
0.0
 30
0.0
210
0.0
220
0.0
230
1.0
  2
ANSI31
 70
     0
 71
     0
 91
        4
 92
        7
 72
     1
 73
     1
 93
        3
 10
511.3603986891635
 20
1183.46227489369
 42
0.0088242164717323
 10
507.7655639446294
 20
1185.21645936503
 42
0.0
 10
511.229665559767
 20
1187.21645936503
 42
-0.2493796996436278
 97
        0
 92
        7
 72
     1
 73
     1
 93
        3
 10
507.7655639446294
 20
1185.21645936503
 42
-0.0088242164717323
 10
511.3603986891635
 20
1183.46227489369
 42
-0.1494012440317256
 10
509.7655639446291
 20
1181.752357749892
 42
0.0
 97
        0
 92
        7
 72
     1
 73
     1
 93
        3
 10
507.7655639446294
 20
1185.21645936503
 42
0.0
 10
504.3014623294915
 20
1183.21645936503
 42
-0.2400272838228544
 10
504.1110654454966
 20
1186.842694501729
 42
-0.0088242164717324
 97
        0
 92
        7
 72
     1
 73
     1
 93
        3
 10
504.1110654454966
 20
1186.842694501729
 42
-0.1584343322340092
 10
505.7655639446293
 20
1188.680560980166
 42
0.0
 10
507.7655639446294
 20
1185.21645936503
 42
0.0088242164717324
 97
        0
 75
     0
 76
     1
 52
230.0
 41
1.333333333333333
 77
     0
 78
     1
 53
75.00000000000007
 43
1074.822033371413
 44
1010.253901224408
 45
0.1609876377148447
 46
-0.0431365075170867
 79
     0
 47
0.0130930922504628
 98
        4
 10
511.19974124161
 20
1184.839378813987
 10
509.7579878375801
 20
1183.32135409843
 10
505.6501091296608
 20
1185.164257543688
 10
505.0914136419473
 20
1187.039732539717
  0
CIRCLE
  5
27078
330
18
100
AcDbEntity
  8
0
100
AcDbCircle
 10
507.7655639446294
 20
1185.216459365029
 30
0.0
 40
4.0
  0
LINE
  5
27079
330
18
100
AcDbEntity
  8
中心線
100
AcDbLine
 10
511.752840956517
 20
1178.268285043816
 30
0.0
 11
503.7528409565168
 21
1192.124691504367
 31
0.0
  0
LINE
  5
2707A
330
18
100
AcDbEntity
  8
DIMENSION
  6
ByBlock
 62
     0
100
AcDbLine
 10
511.229665559767
 20
1187.21645936503
 30
0.0
 11
504.3014623294915
 21
1183.21645936503
 31
0.0
  0
LINE
  5
2707B
330
18
100
AcDbEntity
  8
DIMENSION
  6
ByBlock
 62
     0
100
AcDbLine
 10
509.7655639446291
 20
1181.752357749892
 30
0.0
 11
505.7655639446292
 21
1188.680560980166
 31
0.0
  0
ARC
  5
27082
330
18
100
AcDbEntity
  8
中心線
100
AcDbCircle
 10
605.5155639446293
 20
1015.908492925172
 30
0.0
 40
225.0
100
AcDbArc
 50
40.66995518630434
 51
49.33004481369565
  0
LINE
  5
27083
330
18
100
AcDbEntity
  8
中心線
100
AcDbLine
 10
776.6354049917738
 20
1187.028333972316
 30
0.0
 11
752.5937744314314
 21
1162.986703411972
 31
0.0
  0
LINE
  5
27085
102
{ACAD_REACTORS
330
288E1
102
}
330
18
100
AcDbEntity
  8
仮想線
100
AcDbLine
 10
625.5949535599105
 20
1222.908498107312
 30
0.0
 11
585.5949535599096
 21
1222.908519170306
 31
0.0
  0
CIRCLE
  5
27086
330
18
100
AcDbEntity
  8
DIMENSION
  6
Continuous
100
AcDbCircle
 10
656.1146872621722
 20
1204.746991964685
 30
0.0
 40
3.5
  0
CIRCLE
  5
27087
330
18
100
AcDbEntity
  8
0
100
AcDbCircle
 10
656.1146872621722
 20
1204.746991964685
 30
0.0
 40
4.0
  0
LINE
  5
27088
102
{ACAD_REACTORS
330
288E1
102
}
330
18
100
AcDbEntity
  8
中心線
 48
0.5
100
AcDbLine
 10
595.5155639446295
 20
1211.939396352099
 30
0.0
 11
595.5155639446291
 21
1232.966367096935
 31
0.0
  0
LINE
  5
27089
102
{ACAD_REACTORS
330
288E1
102
}
330
18
100
AcDbEntity
  8
仮想線
100
AcDbLine
 10
599.8449542444576
 20
1225.208508638809
 30
0.0
 11
599.8449542444576
 21
1229.908508638809
 31
0.0
  0
LINE
  5
2708A
102
{ACAD_REACTORS
330
288E1
102
}
330
18
100
AcDbEntity
  8
仮想線
100
AcDbLine
 10
591.3449542444576
 20
1225.208508638809
 30
0.0
 11
591.3449542444576
 21
1229.908508638809
 31
0.0
  0
LINE
  5
2708B
102
{ACAD_REACTORS
330
288E1
102
}
330
18
100
AcDbEntity
  8
仮想線
100
AcDbLine
 10
590.9949542444572
 20
1225.208508638809
 30
0.0
 11
600.1949542444569
 21
1225.208508638809
 31
0.0
  0
LINE
  5
2708C
102
{ACAD_REACTORS
330
288E1
102
}
330
18
100
AcDbEntity
  8
仮想線
100
AcDbLine
 10
590.5949542444576
 20
1223.908508638809
 30
0.0
 11
595.5949542444576
 21
1223.908508638809
 31
0.0
  0
LINE
  5
2708D
102
{ACAD_REACTORS
330
288E1
102
}
330
18
100
AcDbEntity
  8
仮想線
100
AcDbLine
 10
590.5949542444576
 20
1222.908508638808
 30
0.0
 11
590.5949542444576
 21
1223.908508638809
 31
0.0
  0
LINE
  5
2708E
102
{ACAD_REACTORS
330
288E1
102
}
330
18
100
AcDbEntity
  8
仮想線
100
AcDbLine
 10
590.9949542444572
 20
1223.908508638809
 30
0.0
 11
590.9949542444572
 21
1225.208508638809
 31
0.0
  0
LINE
  5
2708F
102
{ACAD_REACTORS
330
288E1
102
}
330
18
100
AcDbEntity
  8
仮想線
100
AcDbLine
 10
585.5949535599096
 20
1222.908519170306
 30
0.0
 11
585.5949535599108
 21
1218.908492925175
 31
0.0
  0
LINE
  5
27090
102
{ACAD_REACTORS
330
288E1
102
}
330
18
100
AcDbEntity
  8
仮想線
100
AcDbLine
 10
595.5949542444576
 20
1223.908508638809
 30
0.0
 11
600.5949542444576
 21
1223.908508638809
 31
0.0
  0
LINE
  5
27091
102
{ACAD_REACTORS
330
288E1
102
}
330
18
100
AcDbEntity
  8
仮想線
100
AcDbLine
 10
600.5949542444576
 20
1222.908508638808
 30
0.0
 11
600.5949542444576
 21
1223.908508638809
 31
0.0
  0
LINE
  5
27092
102
{ACAD_REACTORS
330
288E1
102
}
330
18
100
AcDbEntity
  8
仮想線
100
AcDbLine
 10
600.1949542444577
 20
1223.908508638809
 30
0.0
 11
600.1949542444569
 21
1225.208508638809
 31
0.0
  0
LWPOLYLINE
  5
27093
330
18
100
AcDbEntity
  8
DIMENSION
  6
Continuous
100
AcDbPolyline
 90
        6
 70
     1
 43
0.0
 10
654.8899423919205
 20
1205.971736834936
 10
656.5629749978389
 20
1206.420024570603
 10
657.7877198680911
 20
1205.195279700352
 10
657.3394321324244
 20
1203.522247094433
 10
655.6663995265059
 20
1203.073959358766
 10
654.4416546562537
 20
1204.298704229016
  0
LINE
  5
27094
102
{ACAD_REACTORS
330
288E1
102
}
330
18
100
AcDbEntity
  8
仮想線
100
AcDbLine
 10
599.5449542444575
 20
1230.208508638809
 30
0.0
 11
591.6449542444578
 21
1230.208508638809
 31
0.0
  0
LINE
  5
27095
102
{ACAD_REACTORS
330
288E1
102
}
330
18
100
AcDbEntity
  8
仮想線
100
AcDbLine
 10
591.3449542444576
 20
1229.908508638809
 30
0.0
 11
591.6449542444578
 21
1230.208508638809
 31
0.0
  0
LINE
  5
27096
102
{ACAD_REACTORS
330
288E1
102
}
330
18
100
AcDbEntity
  8
仮想線
100
AcDbLine
 10
599.5449542444575
 20
1230.208508638809
 30
0.0
 11
599.8449542444576
 21
1229.908508638809
 31
0.0
  0
LINE
  5
27097
102
{ACAD_REACTORS
330
288E1
102
}
330
18
100
AcDbEntity
  8
中心線
 48
0.5
100
AcDbLine
 10
615.5155639446292
 20
1211.939396352099
 30
0.0
 11
615.5155639446292
 21
1232.966367096935
 31
0.0
  0
LINE
  5
27098
102
{ACAD_REACTORS
330
288E1
102
}
330
18
100
AcDbEntity
  8
仮想線
100
AcDbLine
 10
611.1861736448012
 20
1225.208508638809
 30
0.0
 11
611.1861736448012
 21
1229.908508638809
 31
0.0
  0
LINE
  5
27099
102
{ACAD_REACTORS
330
288E1
102
}
330
18
100
AcDbEntity
  8
仮想線
100
AcDbLine
 10
619.6861736448012
 20
1225.208508638809
 30
0.0
 11
619.6861736448012
 21
1229.908508638809
 31
0.0
  0
LINE
  5
2709A
102
{ACAD_REACTORS
330
288E1
102
}
330
18
100
AcDbEntity
  8
仮想線
100
AcDbLine
 10
620.0361736448016
 20
1225.208508638809
 30
0.0
 11
610.8361736448017
 21
1225.208508638809
 31
0.0
  0
LINE
  5
2709B
102
{ACAD_REACTORS
330
288E1
102
}
330
18
100
AcDbEntity
  8
仮想線
100
AcDbLine
 10
615.4361736448012
 20
1223.908508638809
 30
0.0
 11
610.4361736448012
 21
1223.908508638809
 31
0.0
  0
LINE
  5
2709C
102
{ACAD_REACTORS
330
288E1
102
}
330
18
100
AcDbEntity
  8
仮想線
100
AcDbLine
 10
610.4361736448012
 20
1222.908508638808
 30
0.0
 11
610.4361736448012
 21
1223.908508638809
 31
0.0
  0
LINE
  5
2709D
102
{ACAD_REACTORS
330
288E1
102
}
330
18
100
AcDbEntity
  8
仮想線
100
AcDbLine
 10
610.8361736448013
 20
1223.908508638809
 30
0.0
 11
610.8361736448017
 21
1225.208508638809
 31
0.0
  0
LINE
  5
2709E
102
{ACAD_REACTORS
330
288E1
102
}
330
18
100
AcDbEntity
  8
仮想線
100
AcDbLine
 10
620.4361736448012
 20
1222.908508638808
 30
0.0
 11
620.4361736448012
 21
1223.908508638809
 31
0.0
  0
LINE
  5
2709F
102
{ACAD_REACTORS
330
288E1
102
}
330
18
100
AcDbEntity
  8
仮想線
100
AcDbLine
 10
620.4361736448012
 20
1223.908508638809
 30
0.0
 11
615.4361736448012
 21
1223.908508638809
 31
0.0
  0
LINE
  5
270A0
102
{ACAD_REACTORS
330
288E1
102
}
330
18
100
AcDbEntity
  8
仮想線
100
AcDbLine
 10
620.0361736448016
 20
1223.908508638809
 30
0.0
 11
620.0361736448016
 21
1225.208508638809
 31
0.0
  0
LINE
  5
270A1
102
{ACAD_REACTORS
330
288E1
102
}
330
18
100
AcDbEntity
  8
仮想線
100
AcDbLine
 10
625.5949535599097
 20
1218.908492925175
 30
0.0
 11
625.5949535599105
 21
1222.908498107312
 31
0.0
  0
LINE
  5
270A2
102
{ACAD_REACTORS
330
288E1
102
}
330
18
100
AcDbEntity
  8
仮想線
100
AcDbLine
 10
611.4861736448014
 20
1230.208508638809
 30
0.0
 11
619.386173644801
 21
1230.208508638809
 31
0.0
  0
LINE
  5
270A3
102
{ACAD_REACTORS
330
288E1
102
}
330
18
100
AcDbEntity
  8
仮想線
100
AcDbLine
 10
611.4861736448014
 20
1230.208508638809
 30
0.0
 11
611.1861736448012
 21
1229.908508638809
 31
0.0
  0
LINE
  5
270A4
102
{ACAD_REACTORS
330
288E1
102
}
330
18
100
AcDbEntity
  8
仮想線
100
AcDbLine
 10
619.6861736448012
 20
1229.908508638809
 30
0.0
 11
619.386173644801
 21
1230.208508638809
 31
0.0
  0
CIRCLE
  5
270AB
330
18
100
AcDbEntity
  8
0
100
AcDbCircle
 10
764.6145897116026
 20
1175.007518692144
 30
0.0
 40
8.5
  0
CIRCLE
  5
270F1
330
18
100
AcDbEntity
  8
0
  6
ByBlock
100
AcDbCircle
 10
49.71740447323185
 20
1015.908492925172
 30
0.0
 40
202.4999999999999
  0
LINE
  5
271BD
330
18
100
AcDbEntity
  8
0
100
AcDbLine
 10
-162.2844246044038
 20
1136.407099090384
 30
0.0
 11
-168.2844245133569
 21
1136.406053833794
 31
0.0
  0
LINE
  5
271BE
330
18
100
AcDbEntity
  8
0
100
AcDbLine
 10
-162.2833744936326
 20
1130.379235136855
 30
0.0
 11
-168.283374402586
 21
1130.378189880263
 31
0.0
  0
LINE
  5
271BF
330
18
100
AcDbEntity
  8
0
100
AcDbLine
 10
-162.2836391242759
 20
1131.898272517257
 30
0.0
 11
-168.283639033229
 21
1131.897227260665
 31
0.0
  0
LINE
  5
271C0
330
18
100
AcDbEntity
  8
0
100
AcDbLine
 10
-162.2807662063338
 20
1115.407099409049
 30
0.0
 11
-168.2807661152868
 21
1115.406054152457
 31
0.0
  0
LINE
  5
271C1
330
18
100
AcDbEntity
  8
0
100
AcDbLine
 10
-168.2815515954146
 20
1119.914880725586
 30
0.0
 11
-162.2815516864615
 21
1119.915925982178
 31
0.0
  0
LINE
  5
271C2
330
18
100
AcDbEntity
  8
0
100
AcDbLine
 10
-168.2818162260579
 20
1121.433918105988
 30
0.0
 11
-162.2818163171045
 21
1121.434963362579
 31
0.0
  0
LINE
  5
271C3
330
18
100
AcDbEntity
  8
0
100
AcDbLine
 10
-309.3765860328238
 20
1127.919555297137
 30
0.0
 11
-186.6054824904459
 21
1127.919555297142
 31
0.0
  0
LINE
  5
271C4
330
18
100
AcDbEntity
  8
0
100
AcDbLine
 10
-309.0224766126348
 20
1123.919555297142
 30
0.0
 11
-186.6054824904464
 21
1123.919555297142
 31
0.0
  0
LINE
  5
271C6
330
18
100
AcDbEntity
  8
0
100
AcDbLine
 10
-184.8249050071073
 20
1127.919555297142
 30
0.0
 11
-172.7829461535305
 21
1127.919555297142
 31
0.0
  0
LINE
  5
271C7
330
18
100
AcDbEntity
  8
0
100
AcDbLine
 10
-184.8249050071068
 20
1123.919555297142
 30
0.0
 11
-172.7822493157924
 21
1123.919555297142
 31
0.0
  0
ARC
  5
271C8
330
18
100
AcDbEntity
  8
0
100
AcDbCircle
 10
-187.7295805334837
 20
1126.919555296741
 30
0.0
 40
1.504525310907321
100
AcDbArc
 50
318.3436407292488
 51
41.6563592707512
  0
ARC
  5
271C9
330
18
100
AcDbEntity
  8
0
100
AcDbCircle
 10
-183.7008069640696
 20
1126.919555296741
 30
0.0
 40
1.504525310907321
100
AcDbArc
 50
138.3436407292487
 51
221.656359270751
  0
ARC
  5
271CA
330
18
100
AcDbEntity
  8
0
100
AcDbCircle
 10
-183.7008069640693
 20
1124.919555297542
 30
0.0
 40
1.504525310907321
100
AcDbArc
 50
138.3436407292487
 51
221.656359270751
  0
ARC
  5
271CB
330
18
100
AcDbEntity
  8
0
100
AcDbCircle
 10
-187.7295805334837
 20
1124.919555297543
 30
0.0
 40
1.504525310907321
100
AcDbArc
 50
318.3436407292488
 51
41.6563592707512
  0
ARC
  5
271CC
330
18
100
AcDbEntity
  8
0
100
AcDbCircle
 10
-185.4813844459853
 20
1124.919555297543
 30
0.0
 40
1.504525310907321
100
AcDbArc
 50
138.3436407292487
 51
221.656359270751
  0
ARC
  5
271CD
330
18
100
AcDbEntity
  8
0
100
AcDbCircle
 10
-185.9490030515677
 20
1126.919555296741
 30
0.0
 40
1.504525310907321
100
AcDbArc
 50
318.3436407292488
 51
41.6563592707512
  0
LINE
  5
271CE
330
18
100
AcDbEntity
  8
0
100
AcDbLine
 10
-168.283639033229
 20
1131.897227260665
 30
0.0
 11
-168.283374402586
 21
1130.378189880263
 31
0.0
  0
ARC
  5
271CF
330
18
100
AcDbEntity
  8
0
100
AcDbCircle
 10
-160.3070221705295
 20
1115.70852807186
 30
0.0
 40
9.015903847971632
100
AcDbArc
 50
152.1895426094149
 51
174.4703481467429
  0
LINE
  5
271D0
330
18
100
AcDbEntity
  8
0
100
AcDbLine
 10
-168.2818162260579
 20
1121.433918105988
 30
0.0
 11
-168.2815515954146
 21
1119.914880725586
 31
0.0
  0
ARC
  5
271D1
330
18
100
AcDbEntity
  8
0
100
AcDbCircle
 10
-158.7825954584789
 20
1125.907708982728
 30
0.0
 40
10.50000000000042
100
AcDbArc
 50
154.801216168494
 51
205.2187467620018
  0
ARC
  5
271D2
330
18
100
AcDbEntity
  8
0
100
AcDbCircle
 10
-160.310575664971
 20
1136.106358135513
 30
0.0
 40
9.015903847971632
100
AcDbArc
 50
185.5496147837551
 51
207.8304203210863
  0
LINE
  5
271D3
330
18
100
AcDbEntity
  8
0
100
AcDbLine
 10
-169.2842204242761
 20
1135.234451070709
 30
0.0
 11
-169.2809701740185
 21
1116.577308496679
 31
0.0
  0
LINE
  5
271D4
330
18
100
AcDbEntity
  8
0
100
AcDbLine
 10
-172.783506112495
 20
1131.133841399914
 30
0.0
 11
-172.7816843795785
 21
1120.67669870145
 31
0.0
  0
LINE
  5
271D5
330
18
100
AcDbEntity
  8
0
100
AcDbLine
 10
-168.2844245133565
 20
1136.406053833794
 30
0.0
 11
-172.783506112495
 21
1131.133841399914
 31
0.0
  0
LINE
  5
271D6
330
18
100
AcDbEntity
  8
0
100
AcDbLine
 10
-168.2807661152868
 20
1115.406054152457
 30
0.0
 11
-172.7816843795785
 21
1120.67669870145
 31
0.0
  0
LINE
  5
271D7
330
18
100
AcDbEntity
  8
0
100
AcDbLine
 10
-154.2844247257999
 20
1136.408492765839
 30
0.0
 11
-157.2844246802761
 21
1136.407970137544
 31
0.0
  0
LINE
  5
271D8
330
18
100
AcDbEntity
  8
0
100
AcDbLine
 10
-153.284163426826
 20
1134.908666998034
 30
0.0
 11
-154.284163411652
 21
1134.908492788601
 31
0.0
  0
LINE
  5
271D9
330
18
100
AcDbEntity
  8
0
100
AcDbLine
 10
-153.2810276570518
 20
1116.908667271174
 30
0.0
 11
-154.2810276418779
 21
1116.908493061741
 31
0.0
  0
LINE
  5
271DA
330
18
100
AcDbEntity
  8
0
100
AcDbLine
 10
-159.284250440495
 20
1135.407621733856
 30
0.0
 11
-162.2842503949717
 21
1135.40709910556
 31
0.0
  0
LINE
  5
271DB
330
18
100
AcDbEntity
  8
0
100
AcDbLine
 10
-159.2809404612891
 20
1116.40762202217
 30
0.0
 11
-162.2809404157656
 21
1116.407099393873
 31
0.0
  0
LINE
  5
271DC
330
18
100
AcDbEntity
  8
0
100
AcDbLine
 10
-157.2838846310371
 20
1133.307970184586
 30
0.0
 11
-159.2838846006883
 21
1133.307621765722
 31
0.0
  0
LINE
  5
271DD
330
18
100
AcDbEntity
  8
0
100
AcDbLine
 10
-157.2813063314449
 20
1118.507970409168
 30
0.0
 11
-159.281306301096
 21
1118.507621990304
 31
0.0
  0
LINE
  5
271DE
330
18
100
AcDbEntity
  8
0
100
AcDbLine
 10
-159.2809404612891
 20
1116.40762202217
 30
0.0
 11
-159.284250440495
 21
1135.407621733856
 31
0.0
  0
LINE
  5
271DF
330
18
100
AcDbEntity
  8
0
100
AcDbLine
 10
-154.2833746150289
 20
1130.38062881231
 30
0.0
 11
-157.283374569505
 21
1130.380106184013
 31
0.0
  0
LINE
  5
271E0
330
18
100
AcDbEntity
  8
0
100
AcDbLine
 10
-154.283639245672
 20
1131.899666192712
 30
0.0
 11
-157.2836392001481
 21
1131.899143564416
 31
0.0
  0
LINE
  5
271E1
330
18
100
AcDbEntity
  8
0
100
AcDbLine
 10
-154.28076632773
 20
1115.408493084504
 30
0.0
 11
-157.280766282206
 21
1115.407970456207
 31
0.0
  0
LINE
  5
271E2
330
18
100
AcDbEntity
  8
0
100
AcDbLine
 10
-157.2815517623338
 20
1119.916797029337
 30
0.0
 11
-154.2815518078576
 21
1119.917319657633
 31
0.0
  0
LINE
  5
271E3
330
18
100
AcDbEntity
  8
0
100
AcDbLine
 10
-157.281816392977
 20
1121.435834409739
 30
0.0
 11
-154.2818164385008
 21
1121.436357038035
 31
0.0
  0
LINE
  5
271E4
330
18
100
AcDbEntity
  8
0
100
AcDbLine
 10
-157.2844246802761
 20
1136.407970137544
 30
0.0
 11
-157.280766282206
 21
1115.407970456207
 31
0.0
  0
LINE
  5
271E5
330
18
100
AcDbEntity
  8
0
100
AcDbLine
 10
-154.28076632773
 20
1115.408493084504
 30
0.0
 11
-154.2844247257999
 21
1136.408492765839
 31
0.0
  0
LINE
  5
271E6
330
18
100
AcDbEntity
  8
0
100
AcDbLine
 10
-162.2844246044038
 20
1136.407099090384
 30
0.0
 11
-162.2807662063338
 21
1115.407099409049
 31
0.0
  0
LINE
  5
27207
330
18
100
AcDbEntity
  8
中心線
100
AcDbLine
 10
-146.7046632646864
 20
1095.908492925172
 30
0.0
 11
-174.2825955267619
 21
1095.908492925172
 31
0.0
  0
LINE
  5
27215
330
18
100
AcDbEntity
  8
中心線
100
AcDbLine
 10
-147.0090600345965
 20
1125.908492925171
 30
0.0
 11
-174.2825955267619
 21
1125.908492925171
 31
0.0
  0
LINE
  5
27223
330
18
100
AcDbEntity
  8
中心線
100
AcDbLine
 10
-148.5203938164576
 20
935.9084929251723
 30
0.0
 11
-175.2825955267621
 21
935.9084929251723
 31
0.0
  0
LINE
  5
2724C
330
18
100
AcDbEntity
  8
中心線
100
AcDbLine
 10
409.0895054623306
 20
1095.908492925172
 30
0.0
 11
379.1511272305114
 21
1095.908492925172
 31
0.0
  0
LINE
  5
2724D
330
18
100
AcDbEntity
  8
中心線
100
AcDbLine
 10
408.5696732463238
 20
935.908492925172
 30
0.0
 11
379.3989478000757
 21
935.908492925172
 31
0.0
  0
LINE
  5
272CB
330
18
100
AcDbEntity
  8
ｷｬｯﾌ_ﾎ_ﾙﾄ
100
AcDbLine
 10
247.6674044732375
 20
540.0427692718372
 30
0.0
 11
242.7674044732379
 21
540.0427692718372
 31
0.0
  0
LINE
  5
272CC
330
18
100
AcDbEntity
  8
ｷｬｯﾌ_ﾎ_ﾙﾄ
100
AcDbLine
 10
248.7174044732376
 20
539.742769271837
 30
0.0
 11
241.7174044732376
 21
539.742769271837
 31
0.0
  0
LINE
  5
272CD
330
18
100
AcDbEntity
  8
ｷｬｯﾌ_ﾎ_ﾙﾄ
100
AcDbLine
 10
248.7174044732376
 20
539.2427692718373
 30
0.0
 11
241.7174044732376
 21
539.2427692718373
 31
0.0
  0
LINE
  5
272CE
330
18
100
AcDbEntity
  8
ｷｬｯﾌ_ﾎ_ﾙﾄ
100
AcDbLine
 10
241.7174044732376
 20
539.742769271837
 30
0.0
 11
241.7174044732376
 21
539.2427692718373
 31
0.0
  0
LINE
  5
272CF
330
18
100
AcDbEntity
  8
ｷｬｯﾌ_ﾎ_ﾙﾄ
100
AcDbLine
 10
241.7174044732376
 20
539.742769271837
 30
0.0
 11
242.7674044732379
 21
540.0427692718372
 31
0.0
  0
LINE
  5
272D0
330
18
100
AcDbEntity
  8
中心線
 48
0.5
100
AcDbLine
 10
245.2174044732376
 20
541.0427692718371
 30
0.0
 11
245.2174044732376
 21
532.2427692718373
 31
0.0
  0
LINE
  5
272D1
330
18
100
AcDbEntity
  8
中心線
 48
0.2
100
AcDbLine
 10
245.2174044732376
 20
528.5013007828547
 30
0.0
 11
245.2174044732376
 21
539.6117358500389
 31
0.0
  0
LINE
  5
272D2
330
18
100
AcDbEntity
  8
ｷｬｯﾌ_ﾎ_ﾙﾄ
100
AcDbLine
 10
248.7174044732376
 20
539.742769271837
 30
0.0
 11
248.7174044732376
 21
539.2427692718373
 31
0.0
  0
LINE
  5
272D3
330
18
100
AcDbEntity
  8
ｷｬｯﾌ_ﾎ_ﾙﾄ
100
AcDbLine
 10
248.7174044732376
 20
539.742769271837
 30
0.0
 11
247.6674044732375
 21
540.0427692718372
 31
0.0
  0
LINE
  5
272D4
330
18
100
AcDbEntity
  8
ｷｬｯﾌ_ﾎ_ﾙﾄ
100
AcDbLine
 10
-143.3325955267623
 20
540.0427692718372
 30
0.0
 11
-148.232595526762
 21
540.0427692718372
 31
0.0
  0
LINE
  5
272D5
330
18
100
AcDbEntity
  8
ｷｬｯﾌ_ﾎ_ﾙﾄ
100
AcDbLine
 10
-142.2825955267621
 20
539.742769271837
 30
0.0
 11
-149.2825955267621
 21
539.742769271837
 31
0.0
  0
LINE
  5
272D6
330
18
100
AcDbEntity
  8
ｷｬｯﾌ_ﾎ_ﾙﾄ
100
AcDbLine
 10
-142.2825955267621
 20
539.2427692718373
 30
0.0
 11
-149.2825955267621
 21
539.2427692718373
 31
0.0
  0
LINE
  5
272D7
330
18
100
AcDbEntity
  8
ｷｬｯﾌ_ﾎ_ﾙﾄ
100
AcDbLine
 10
-149.2825955267621
 20
539.742769271837
 30
0.0
 11
-149.2825955267621
 21
539.2427692718373
 31
0.0
  0
LINE
  5
272D8
330
18
100
AcDbEntity
  8
ｷｬｯﾌ_ﾎ_ﾙﾄ
100
AcDbLine
 10
-149.2825955267621
 20
539.742769271837
 30
0.0
 11
-148.232595526762
 21
540.0427692718372
 31
0.0
  0
LINE
  5
272D9
330
18
100
AcDbEntity
  8
中心線
 48
0.5
100
AcDbLine
 10
-145.782595526762
 20
541.0427692718371
 30
0.0
 11
-145.782595526762
 21
532.2427692718373
 31
0.0
  0
LINE
  5
272DA
330
18
100
AcDbEntity
  8
中心線
 48
0.2
100
AcDbLine
 10
-145.782595526762
 20
528.5013007828547
 30
0.0
 11
-145.782595526762
 21
539.6117358500389
 31
0.0
  0
LINE
  5
272DB
330
18
100
AcDbEntity
  8
ｷｬｯﾌ_ﾎ_ﾙﾄ
100
AcDbLine
 10
-142.2825955267621
 20
539.742769271837
 30
0.0
 11
-142.2825955267621
 21
539.2427692718373
 31
0.0
  0
LINE
  5
272DC
330
18
100
AcDbEntity
  8
ｷｬｯﾌ_ﾎ_ﾙﾄ
100
AcDbLine
 10
-142.2825955267621
 20
539.742769271837
 30
0.0
 11
-143.3325955267623
 21
540.0427692718372
 31
0.0
  0
CIRCLE
  5
27363
330
18
100
AcDbEntity
  8
0
  6
ByBlock
100
AcDbCircle
 10
605.5155639446293
 20
1015.908492925172
 30
0.0
 40
34.39999999999999
  0
LWPOLYLINE
  5
27364
330
18
100
AcDbEntity
  8
DIMENSION
  6
Continuous
100
AcDbPolyline
 90
        6
 70
     1
 43
0.0
 10
553.2434080211676
 20
1205.195279700352
 10
554.4681528914196
 20
1206.420024570603
 10
556.1411854973384
 20
1205.971736834936
 10
556.5894732330057
 20
1204.298704229017
 10
555.3647283627539
 20
1203.073959358766
 10
553.6916957568349
 20
1203.522247094433
  0
CIRCLE
  5
27365
330
18
100
AcDbEntity
  8
DIMENSION
  6
Continuous
100
AcDbCircle
 10
554.9164406270866
 20
1204.746991964685
 30
0.0
 40
3.5
  0
CIRCLE
  5
27366
330
18
100
AcDbEntity
  8
0
100
AcDbCircle
 10
554.9164406270866
 20
1204.746991964685
 30
0.0
 40
4.0
  0
LWPOLYLINE
  5
27367
330
18
100
AcDbEntity
  8
DIMENSION
  6
Continuous
100
AcDbPolyline
 90
        6
 70
     1
 43
0.0
 10
465.6031556167398
 20
1153.699580911476
 10
466.0514433524073
 20
1155.372613517394
 10
467.7244759583258
 20
1155.820901253061
 10
468.9492208285781
 20
1154.596156382808
 10
468.5009330929114
 20
1152.923123776891
 10
466.8279004869928
 20
1152.474836041223
  0
CIRCLE
  5
27368
330
18
100
AcDbEntity
  8
DIMENSION
  6
Continuous
100
AcDbCircle
 10
467.2761882226592
 20
1154.147868647142
 30
0.0
 40
3.5
  0
CIRCLE
  5
27369
330
18
100
AcDbEntity
  8
0
100
AcDbCircle
 10
467.2761882226592
 20
1154.147868647142
 30
0.0
 40
4.0
  0
LWPOLYLINE
  5
2736A
330
18
100
AcDbEntity
  8
DIMENSION
  6
Continuous
100
AcDbPolyline
 90
        6
 70
     1
 43
0.0
 10
415.4523200348636
 20
1065.282871372462
 10
415.0040322991976
 20
1066.95590397838
 10
416.2287771694491
 20
1068.180648848632
 10
417.9018097753685
 20
1067.732361112967
 10
418.3500975110351
 20
1066.059328507048
 10
417.1253526407836
 20
1064.834583636796
  0
CIRCLE
  5
2736B
330
18
100
AcDbEntity
  8
DIMENSION
  6
Continuous
100
AcDbCircle
 10
416.6770649051163
 20
1066.507616242714
 30
0.0
 40
3.5
  0
CIRCLE
  5
2736C
330
18
100
AcDbEntity
  8
0
100
AcDbCircle
 10
416.6770649051163
 20
1066.507616242714
 30
0.0
 40
4.0
  0
LWPOLYLINE
  5
2736D
330
18
100
AcDbEntity
  8
DIMENSION
  6
Continuous
100
AcDbPolyline
 90
        6
 70
     1
 43
0.0
 10
416.2287771694487
 20
963.6363370017102
 10
415.0040322991976
 20
964.8610818719625
 10
415.452320034864
 20
966.5341144778807
 10
417.1253526407832
 20
966.9824022135482
 10
418.3500975110346
 20
965.7576573432963
 10
417.9018097753685
 20
964.0846247373776
  0
CIRCLE
  5
2736E
330
18
100
AcDbEntity
  8
DIMENSION
  6
Continuous
100
AcDbCircle
 10
416.6770649051164
 20
965.3093696076293
 30
0.0
 40
3.5
  0
CIRCLE
  5
2736F
330
18
100
AcDbEntity
  8
0
100
AcDbCircle
 10
416.6770649051164
 20
965.3093696076293
 30
0.0
 40
4.0
  0
LWPOLYLINE
  5
27370
330
18
100
AcDbEntity
  8
DIMENSION
  6
Continuous
100
AcDbPolyline
 90
        6
 70
     1
 43
0.0
 10
467.7244759583256
 20
875.9960845972827
 10
466.0514433524077
 20
876.4443723329501
 10
465.6031556167404
 20
878.1174049388686
 10
466.8279004869923
 20
879.3421498091211
 10
468.5009330929108
 20
878.8938620734539
 10
468.9492208285781
 20
877.2208294675357
  0
CIRCLE
  5
27371
330
18
100
AcDbEntity
  8
DIMENSION
  6
Continuous
100
AcDbCircle
 10
467.2761882226593
 20
877.669117203202
 30
0.0
 40
3.5
  0
CIRCLE
  5
27372
330
18
100
AcDbEntity
  8
0
100
AcDbCircle
 10
467.2761882226593
 20
877.669117203202
 30
0.0
 40
4.0
  0
LWPOLYLINE
  5
27373
330
18
100
AcDbEntity
  8
DIMENSION
  6
Continuous
100
AcDbPolyline
 90
        6
 70
     1
 43
0.0
 10
556.1411854973381
 20
825.8452490154066
 10
554.4681528914196
 20
825.3969612797405
 10
553.2434080211676
 20
826.6217061499919
 10
553.6916957568344
 20
828.2947387559111
 10
555.364728362753
 20
828.7430264915778
 10
556.5894732330051
 20
827.5182816213265
  0
CIRCLE
  5
27374
330
18
100
AcDbEntity
  8
DIMENSION
  6
Continuous
100
AcDbCircle
 10
554.9164406270866
 20
827.0699938856591
 30
0.0
 40
3.5
  0
CIRCLE
  5
27375
330
18
100
AcDbEntity
  8
0
100
AcDbCircle
 10
554.9164406270866
 20
827.0699938856591
 30
0.0
 40
4.0
  0
LWPOLYLINE
  5
27376
330
18
100
AcDbEntity
  8
DIMENSION
  6
Continuous
100
AcDbPolyline
 90
        6
 70
     1
 43
0.0
 10
657.7877198680911
 20
826.6217061499915
 10
656.5629749978389
 20
825.3969612797401
 10
654.8899423919205
 20
825.8452490154066
 10
654.4416546562531
 20
827.5182816213257
 10
655.6663995265048
 20
828.7430264915775
 10
657.3394321324237
 20
828.2947387559111
  0
CIRCLE
  5
27377
330
18
100
AcDbEntity
  8
DIMENSION
  6
Continuous
100
AcDbCircle
 10
656.1146872621718
 20
827.0699938856591
 30
0.0
 40
3.5
  0
CIRCLE
  5
27378
330
18
100
AcDbEntity
  8
0
100
AcDbCircle
 10
656.1146872621718
 20
827.0699938856591
 30
0.0
 40
4.0
  0
LWPOLYLINE
  5
27379
330
18
100
AcDbEntity
  8
DIMENSION
  6
Continuous
100
AcDbPolyline
 90
        6
 70
     1
 43
0.0
 10
745.4279722725189
 20
878.1174049388678
 10
744.9796845368513
 20
876.4443723329497
 10
743.3066519309329
 20
875.9960845972827
 10
742.0819070606805
 20
877.2208294675348
 10
742.5301947963474
 20
878.893862073453
 10
744.2032274022659
 20
879.3421498091204
  0
CIRCLE
  5
2737A
330
18
100
AcDbEntity
  8
DIMENSION
  6
Continuous
100
AcDbCircle
 10
743.7549396665994
 20
877.6691172032016
 30
0.0
 40
3.5
  0
CIRCLE
  5
2737B
330
18
100
AcDbEntity
  8
0
100
AcDbCircle
 10
743.7549396665994
 20
877.6691172032016
 30
0.0
 40
4.0
  0
LWPOLYLINE
  5
2737C
330
18
100
AcDbEntity
  8
DIMENSION
  6
Continuous
100
AcDbPolyline
 90
        6
 70
     1
 43
0.0
 10
795.578807854395
 20
966.5341144778807
 10
796.0270955900612
 20
964.8610818719625
 10
794.8023507198096
 20
963.6363370017104
 10
793.1293181138902
 20
964.0846247373772
 10
792.6810303782237
 20
965.7576573432956
 10
793.9057752484751
 20
966.9824022135475
  0
CIRCLE
  5
2737D
330
18
100
AcDbEntity
  8
DIMENSION
  6
Continuous
100
AcDbCircle
 10
794.3540629841423
 20
965.3093696076293
 30
0.0
 40
3.5
  0
CIRCLE
  5
2737E
330
18
100
AcDbEntity
  8
0
100
AcDbCircle
 10
794.3540629841423
 20
965.3093696076293
 30
0.0
 40
4.0
  0
LWPOLYLINE
  5
2737F
330
18
100
AcDbEntity
  8
DIMENSION
  6
Continuous
100
AcDbPolyline
 90
        6
 70
     1
 43
0.0
 10
794.8023507198102
 20
1068.180648848634
 10
796.0270955900612
 20
1066.95590397838
 10
795.5788078543946
 20
1065.282871372462
 10
793.9057752484756
 20
1064.834583636794
 10
792.6810303782241
 20
1066.059328507047
 10
793.1293181138904
 20
1067.732361112966
  0
CIRCLE
  5
27380
330
18
100
AcDbEntity
  8
DIMENSION
  6
Continuous
100
AcDbCircle
 10
794.3540629841423
 20
1066.507616242714
 30
0.0
 40
3.5
  0
CIRCLE
  5
27381
330
18
100
AcDbEntity
  8
0
100
AcDbCircle
 10
794.3540629841423
 20
1066.507616242714
 30
0.0
 40
4.0
  0
LWPOLYLINE
  5
27382
330
18
100
AcDbEntity
  8
DIMENSION
  6
Continuous
100
AcDbPolyline
 90
        6
 70
     1
 43
0.0
 10
743.306651930933
 20
1155.820901253061
 10
744.9796845368512
 20
1155.372613517394
 10
745.4279722725186
 20
1153.699580911475
 10
744.2032274022664
 20
1152.474836041223
 10
742.5301947963478
 20
1152.923123776889
 10
742.0819070606807
 20
1154.596156382807
  0
CIRCLE
  5
27383
330
18
100
AcDbEntity
  8
DIMENSION
  6
Continuous
100
AcDbCircle
 10
743.7549396665994
 20
1154.147868647142
 30
0.0
 40
3.5
  0
CIRCLE
  5
27384
330
18
100
AcDbEntity
  8
0
100
AcDbCircle
 10
743.7549396665994
 20
1154.147868647142
 30
0.0
 40
4.0
  0
CIRCLE
  5
27385
330
18
100
AcDbEntity
  8
細線
 48
5.0
100
AcDbCircle
 10
-19.53259552676455
 20
1135.85301134932
 30
0.0
 40
5.0
  0
CIRCLE
  5
27386
330
18
100
AcDbEntity
  8
0
100
AcDbCircle
 10
-19.53259552676455
 20
1135.85301134932
 30
0.0
 40
5.588235294117645
  0
LWPOLYLINE
  5
27387
330
18
100
AcDbEntity
  8
細線
 48
5.0
100
AcDbPolyline
 90
        6
 70
     1
 43
0.0
 10
-18.17369764581587
 20
1138.206691521419
 10
-20.89149340771291
 20
1138.206691521419
 10
-22.25039128866182
 20
1135.853011349319
 10
-20.89149340771268
 20
1133.499331177218
 10
-18.17369764581542
 20
1133.499331177219
 10
-16.81479976486696
 20
1135.853011349319
  0
CIRCLE
  5
27388
330
18
100
AcDbEntity
  8
細線
 48
5.0
100
AcDbCircle
 10
-70.22711395091135
 20
1085.158492925176
 30
0.0
 40
5.0
  0
CIRCLE
  5
27389
330
18
100
AcDbEntity
  8
0
100
AcDbCircle
 10
-70.22711395091135
 20
1085.158492925176
 30
0.0
 40
5.588235294117645
  0
LWPOLYLINE
  5
2738A
330
18
100
AcDbEntity
  8
細線
 48
5.0
100
AcDbPolyline
 90
        6
 70
     1
 43
0.0
 10
-70.22711395091153
 20
1087.876288687074
 10
-72.58079412301206
 20
1086.517390806124
 10
-72.58079412301206
 20
1083.799595044227
 10
-70.2271139509105
 20
1082.440697163278
 10
-67.87343377881041
 20
1083.799595044228
 10
-67.87343377881041
 20
1086.517390806124
  0
CIRCLE
  5
2738B
330
18
100
AcDbEntity
  8
細線
 48
5.0
100
AcDbCircle
 10
-88.78259552676892
 20
1015.908492925176
 30
0.0
 40
5.0
  0
CIRCLE
  5
2738C
330
18
100
AcDbEntity
  8
0
100
AcDbCircle
 10
-88.78259552676892
 20
1015.908492925176
 30
0.0
 40
5.588235294117645
  0
LWPOLYLINE
  5
2738D
330
18
100
AcDbEntity
  8
細線
 48
5.0
100
AcDbPolyline
 90
        6
 70
     1
 43
0.0
 10
-90.14149340771792
 20
1018.262173097276
 10
-91.50039128866636
 20
1015.908492925177
 10
-90.14149340771746
 20
1013.554812753076
 10
-87.42369764581917
 20
1013.554812753076
 10
-86.06479976487163
 20
1015.908492925177
 10
-87.42369764582008
 20
1018.262173097276
  0
CIRCLE
  5
2738E
330
18
100
AcDbEntity
  8
細線
 48
5.0
100
AcDbCircle
 10
-70.22711395091556
 20
946.6584929251757
 30
0.0
 40
5.0
  0
CIRCLE
  5
2738F
330
18
100
AcDbEntity
  8
0
100
AcDbCircle
 10
-70.22711395091556
 20
946.6584929251757
 30
0.0
 40
5.588235294117645
  0
LWPOLYLINE
  5
27390
330
18
100
AcDbEntity
  8
細線
 48
5.0
100
AcDbPolyline
 90
        6
 70
     1
 43
0.0
 10
-72.58079412301686
 20
948.0173908061244
 10
-72.58079412301663
 20
945.2995950442273
 10
-70.22711395091551
 20
943.9406971632784
 10
-67.87343377881405
 20
945.2995950442275
 10
-67.8734337788153
 20
948.0173908061246
 10
-70.22711395091572
 20
949.3762886870731
  0
CIRCLE
  5
27391
330
18
100
AcDbEntity
  8
細線
 48
5.0
100
AcDbCircle
 10
-19.53259552677252
 20
895.963974501029
 30
0.0
 40
5.0
  0
CIRCLE
  5
27392
330
18
100
AcDbEntity
  8
0
100
AcDbCircle
 10
-19.53259552677252
 20
895.963974501029
 30
0.0
 40
5.588235294117645
  0
LWPOLYLINE
  5
27393
330
18
100
AcDbEntity
  8
細線
 48
5.0
100
AcDbPolyline
 90
        6
 70
     1
 43
0.0
 10
-22.25039128867013
 20
895.9639745010289
 10
-20.89149340772144
 20
893.6102943289283
 10
-18.17369764582371
 20
893.6102943289283
 10
-16.81479976487457
 20
895.9639745010298
 10
-18.17369764582429
 20
898.3176546731296
 10
-20.89149340772121
 20
898.31765467313
  0
CIRCLE
  5
27394
330
18
100
AcDbEntity
  8
細線
 48
5.0
100
AcDbCircle
 10
49.71740447322726
 20
877.4084929251714
 30
0.0
 40
5.0
  0
CIRCLE
  5
27395
330
18
100
AcDbEntity
  8
0
100
AcDbCircle
 10
49.71740447322726
 20
877.4084929251714
 30
0.0
 40
5.588235294117645
  0
LWPOLYLINE
  5
27396
330
18
100
AcDbEntity
  8
細線
 48
5.0
100
AcDbPolyline
 90
        6
 70
     1
 43
0.0
 10
47.36372430112626
 20
876.0495950442225
 10
49.71740447322694
 20
874.6906971632741
 10
52.07108464532812
 20
876.049595044223
 10
52.07108464532812
 20
878.7673908061211
 10
49.7174044732267
 20
880.1262886870688
 10
47.36372430112631
 20
878.7673908061202
  0
CIRCLE
  5
27397
330
18
100
AcDbEntity
  8
細線
 48
5.0
100
AcDbCircle
 10
118.9674044732283
 20
895.9639745010242
 30
0.0
 40
5.0
  0
CIRCLE
  5
27398
330
18
100
AcDbEntity
  8
0
100
AcDbCircle
 10
118.9674044732283
 20
895.9639745010242
 30
0.0
 40
5.588235294117645
  0
LWPOLYLINE
  5
27399
330
18
100
AcDbEntity
  8
細線
 48
5.0
100
AcDbPolyline
 90
        6
 70
     1
 43
0.0
 10
117.6085065922795
 20
893.6102943289231
 10
120.3263023541766
 20
893.6102943289231
 10
121.6852002351255
 20
895.9639745010242
 10
120.3263023541764
 20
898.3176546731261
 10
117.608506592279
 20
898.3176546731247
 10
116.2496087113306
 20
895.9639745010242
  0
CIRCLE
  5
2739A
330
18
100
AcDbEntity
  8
細線
 48
5.0
100
AcDbCircle
 10
169.6619228973751
 20
946.6584929251677
 30
0.0
 40
5.0
  0
CIRCLE
  5
2739B
330
18
100
AcDbEntity
  8
0
100
AcDbCircle
 10
169.6619228973751
 20
946.6584929251677
 30
0.0
 40
5.588235294117645
  0
LWPOLYLINE
  5
2739C
330
18
100
AcDbEntity
  8
細線
 48
5.0
100
AcDbPolyline
 90
        6
 70
     1
 43
0.0
 10
169.661922897375
 20
943.9406971632699
 10
172.0156030694755
 20
945.2995950442188
 10
172.0156030694755
 20
948.0173908061162
 10
169.6619228973738
 20
949.3762886870655
 10
167.3082427252738
 20
948.0173908061161
 10
167.3082427252738
 20
945.299595044219
  0
CIRCLE
  5
2739D
330
18
100
AcDbEntity
  8
細線
 48
5.0
100
AcDbCircle
 10
188.2174044732325
 20
1015.908492925166
 30
0.0
 40
5.0
  0
CIRCLE
  5
2739E
330
18
100
AcDbEntity
  8
0
100
AcDbCircle
 10
188.2174044732325
 20
1015.908492925166
 30
0.0
 40
5.588235294117645
  0
LWPOLYLINE
  5
2739F
330
18
100
AcDbEntity
  8
細線
 48
5.0
100
AcDbPolyline
 90
        6
 70
     1
 43
0.0
 10
189.5763023541815
 20
1013.554812753066
 10
190.9352002351298
 20
1015.908492925166
 10
189.5763023541809
 20
1018.262173097268
 10
186.8585065922826
 20
1018.262173097268
 10
185.4996087113351
 20
1015.908492925166
 10
186.8585065922836
 20
1013.554812753066
  0
CIRCLE
  5
273A0
330
18
100
AcDbEntity
  8
細線
 48
5.0
100
AcDbCircle
 10
169.6619228973792
 20
1085.158492925168
 30
0.0
 40
5.0
  0
CIRCLE
  5
273A1
330
18
100
AcDbEntity
  8
0
100
AcDbCircle
 10
169.6619228973792
 20
1085.158492925168
 30
0.0
 40
5.588235294117645
  0
LWPOLYLINE
  5
273A2
330
18
100
AcDbEntity
  8
細線
 48
5.0
100
AcDbPolyline
 90
        6
 70
     1
 43
0.0
 10
172.0156030694806
 20
1083.79959504422
 10
172.0156030694804
 20
1086.517390806116
 10
169.6619228973792
 20
1087.876288687064
 10
167.3082427252776
 20
1086.517390806116
 10
167.3082427252789
 20
1083.799595044219
 10
169.6619228973792
 20
1082.440697163271
  0
CIRCLE
  5
273A3
330
18
100
AcDbEntity
  8
細線
 48
5.0
100
AcDbCircle
 10
118.9674044732361
 20
1135.853011349315
 30
0.0
 40
5.0
  0
CIRCLE
  5
273A4
330
18
100
AcDbEntity
  8
0
100
AcDbCircle
 10
118.9674044732361
 20
1135.853011349315
 30
0.0
 40
5.588235294117645
  0
LWPOLYLINE
  5
273A5
330
18
100
AcDbEntity
  8
細線
 48
5.0
100
AcDbPolyline
 90
        6
 70
     1
 43
0.0
 10
121.6852002351337
 20
1135.853011349315
 10
120.326302354185
 20
1138.206691521415
 10
117.6085065922872
 20
1138.206691521415
 10
116.2496087113382
 20
1135.853011349313
 10
117.6085065922879
 20
1133.499331177214
 10
120.3263023541847
 20
1133.499331177214
  0
CIRCLE
  5
2757F
330
18
100
AcDbEntity
  8
破線
100
AcDbCircle
 10
605.5155639446293
 20
1015.908492925171
 30
0.0
 40
202.4999999999999
  0
ARC
  5
275C6
330
18
100
AcDbEntity
  8
0
100
AcDbCircle
 10
-103.282595526765
 20
1168.908492925175
 30
0.0
 40
50.0
100
AcDbArc
 50
90.0
 51
180.0
  0
ARC
  5
275C7
330
18
100
AcDbEntity
  8
0
100
AcDbCircle
 10
202.7174044732408
 20
1168.908492925175
 30
0.0
 40
50.0
100
AcDbArc
 50
0.0
 51
90.0
  0
ARC
  5
275C8
330
18
100
AcDbEntity
  8
0
100
AcDbCircle
 10
-103.282595526765
 20
862.9084929251691
 30
0.0
 40
50.0
100
AcDbArc
 50
180.0
 51
269.9999999999999
  0
ARC
  5
275C9
330
18
100
AcDbEntity
  8
0
100
AcDbCircle
 10
202.7174044732408
 20
862.9084929251694
 30
0.0
 40
50.0
100
AcDbArc
 50
269.9999999999998
 51
0.0000000000000127
  0
ARC
  5
27600
330
18
100
AcDbEntity
  8
0
100
AcDbCircle
 10
452.5155639446263
 20
1168.908492925175
 30
0.0
 40
50.0
100
AcDbArc
 50
89.99999999999992
 51
180.0
  0
ARC
  5
27601
330
18
100
AcDbEntity
  8
0
100
AcDbCircle
 10
758.5155639446326
 20
1168.908492925174
 30
0.0
 40
50.0
100
AcDbArc
 50
0.0
 51
89.99999999999992
  0
ARC
  5
27602
330
18
100
AcDbEntity
  8
0
100
AcDbCircle
 10
758.5155639446326
 20
862.9084929251687
 30
0.0
 40
50.0
100
AcDbArc
 50
270.0
 51
0.0
  0
ARC
  5
27603
330
18
100
AcDbEntity
  8
0
100
AcDbCircle
 10
452.5155639446263
 20
862.9084929251687
 30
0.0
 40
50.0
100
AcDbArc
 50
180.0
 51
270.0
  0
ARC
  5
27678
330
18
100
AcDbEntity
  8
細線
100
AcDbCircle
 10
49.99692904194187
 20
1212.451692817552
 30
0.0
 40
0.5
100
AcDbArc
 50
207.3463876628145
 51
302.6536123371777
  0
CIRCLE
  5
27679
330
18
100
AcDbEntity
  8
細線
100
AcDbCircle
 10
49.71740447323115
 20
1211.408492925158
 30
0.0
 40
0.8299999999999998
  0
ARC
  5
2767A
330
18
100
AcDbEntity
  8
細線
100
AcDbCircle
 10
48.67420458083909
 20
1211.128968356449
 30
0.0
 40
0.5
100
AcDbArc
 50
327.3463876628258
 51
62.65361233717938
  0
ARC
  5
2767B
330
18
100
AcDbEntity
  8
細線
100
AcDbCircle
 10
48.95372914954968
 20
1212.172168248841
 30
0.0
 40
0.5
100
AcDbArc
 50
267.3463876628232
 51
2.653612337178549
  0
ARC
  5
2767C
330
18
100
AcDbEntity
  8
細線
100
AcDbCircle
 10
50.76060436562334
 20
1211.68801749387
 30
0.0
 40
0.5
100
AcDbArc
 50
147.3463876628259
 51
242.6536123371793
  0
ARC
  5
2767D
330
18
100
AcDbEntity
  8
細線
100
AcDbCircle
 10
49.43787990452046
 20
1210.365293032767
 30
0.0
 40
0.5
100
AcDbArc
 50
27.3463876628146
 51
122.6536123371776
  0
ARC
  5
2767E
330
18
100
AcDbEntity
  8
細線
100
AcDbCircle
 10
50.48107979691263
 20
1210.644817601478
 30
0.0
 40
0.5
100
AcDbArc
 50
87.34638766282321
 51
182.6536123371784
  0
CIRCLE
  5
2767F
330
18
100
AcDbEntity
  8
細線
100
AcDbCircle
 10
49.71740447323115
 20
1211.408492925158
 30
0.0
 40
3.5
  0
CIRCLE
  5
27681
330
18
100
AcDbEntity
  8
細線
100
AcDbCircle
 10
-88.52197124872281
 20
1154.14786864713
 30
0.0
 40
3.5
  0
ARC
  5
27682
330
18
100
AcDbEntity
  8
細線
100
AcDbCircle
 10
-89.06197124872301
 20
1155.083176083218
 30
0.0
 40
0.5
100
AcDbArc
 50
252.3463876628145
 51
347.6536123371776
  0
CIRCLE
  5
27683
330
18
100
AcDbEntity
  8
細線
100
AcDbCircle
 10
-88.52197124872281
 20
1154.14786864713
 30
0.0
 40
0.8299999999999998
  0
ARC
  5
27684
330
18
100
AcDbEntity
  8
細線
100
AcDbCircle
 10
-89.06197124872267
 20
1153.212561211042
 30
0.0
 40
0.5
100
AcDbArc
 50
12.34638766282598
 51
107.6536123371792
  0
ARC
  5
27685
330
18
100
AcDbEntity
  8
細線
100
AcDbCircle
 10
-89.60197124872275
 20
1154.14786864713
 30
0.0
 40
0.5
100
AcDbArc
 50
312.3463876628231
 51
47.65361233717854
  0
ARC
  5
27686
330
18
100
AcDbEntity
  8
細線
100
AcDbCircle
 10
-87.98197124872286
 20
1155.083176083218
 30
0.0
 40
0.5
100
AcDbArc
 50
192.3463876628258
 51
287.6536123371792
  0
ARC
  5
27687
330
18
100
AcDbEntity
  8
細線
100
AcDbCircle
 10
-87.98197124872297
 20
1153.212561211042
 30
0.0
 40
0.5
100
AcDbArc
 50
72.34638766281459
 51
167.6536123371777
  0
ARC
  5
27688
330
18
100
AcDbEntity
  8
細線
100
AcDbCircle
 10
-87.44197124872277
 20
1154.14786864713
 30
0.0
 40
0.5
100
AcDbArc
 50
132.3463876628231
 51
227.6536123371784
  0
CIRCLE
  5
27689
330
18
100
AcDbEntity
  8
細線
100
AcDbCircle
 10
-145.7825955267417
 20
1015.908492925172
 30
0.0
 40
3.5
  0
ARC
  5
2768A
330
18
100
AcDbEntity
  8
細線
100
AcDbCircle
 10
-146.825795419134
 20
1016.188017493883
 30
0.0
 40
0.5
100
AcDbArc
 50
297.3463876628146
 51
32.65361233717769
  0
CIRCLE
  5
2768B
330
18
100
AcDbEntity
  8
細線
100
AcDbCircle
 10
-145.7825955267417
 20
1015.908492925172
 30
0.0
 40
0.8299999999999998
  0
ARC
  5
2768C
330
18
100
AcDbEntity
  8
細線
100
AcDbCircle
 10
-145.503070958031
 20
1014.86529303278
 30
0.0
 40
0.5
100
AcDbArc
 50
57.346387662826
 51
152.6536123371793
  0
ARC
  5
2768D
330
18
100
AcDbEntity
  8
細線
100
AcDbCircle
 10
-146.5462708504231
 20
1015.144817601491
 30
0.0
 40
0.5
100
AcDbArc
 50
357.3463876628232
 51
92.65361233717852
  0
ARC
  5
2768E
330
18
100
AcDbEntity
  8
細線
100
AcDbCircle
 10
-146.0621200954526
 20
1016.951692817565
 30
0.0
 40
0.5
100
AcDbArc
 50
237.3463876628258
 51
332.6536123371793
  0
ARC
  5
2768F
330
18
100
AcDbEntity
  8
細線
100
AcDbCircle
 10
-144.7393956343497
 20
1015.628968356462
 30
0.0
 40
0.5
100
AcDbArc
 50
117.3463876628145
 51
212.6536123371776
  0
ARC
  5
27690
330
18
100
AcDbEntity
  8
細線
100
AcDbCircle
 10
-145.0189202030603
 20
1016.672168248854
 30
0.0
 40
0.5
100
AcDbArc
 50
177.3463876628231
 51
272.6536123371785
  0
CIRCLE
  5
27691
330
18
100
AcDbEntity
  8
細線
100
AcDbCircle
 10
-88.52197124871327
 20
877.669117203219
 30
0.0
 40
3.5
  0
ARC
  5
27692
330
18
100
AcDbEntity
  8
細線
100
AcDbCircle
 10
-89.45727868480059
 20
877.1291172032189
 30
0.0
 40
0.5
100
AcDbArc
 50
342.3463876628145
 51
77.65361233717769
  0
CIRCLE
  5
27693
330
18
100
AcDbEntity
  8
細線
100
AcDbCircle
 10
-88.52197124871327
 20
877.669117203219
 30
0.0
 40
0.8299999999999998
  0
ARC
  5
27694
330
18
100
AcDbEntity
  8
細線
100
AcDbCircle
 10
-87.58666381262623
 20
877.129117203219
 30
0.0
 40
0.5
100
AcDbArc
 50
102.3463876628259
 51
197.6536123371793
  0
ARC
  5
27695
330
18
100
AcDbEntity
  8
細線
100
AcDbCircle
 10
-88.52197124871322
 20
876.5891172032192
 30
0.0
 40
0.5
100
AcDbArc
 50
42.34638766282315
 51
137.6536123371784
  0
ARC
  5
27696
330
18
100
AcDbEntity
  8
細線
100
AcDbCircle
 10
-89.45727868480048
 20
878.209117203219
 30
0.0
 40
0.5
100
AcDbArc
 50
282.3463876628258
 51
17.65361233717934
  0
ARC
  5
27697
330
18
100
AcDbEntity
  8
細線
100
AcDbCircle
 10
-87.58666381262623
 20
878.209117203219
 30
0.0
 40
0.5
100
AcDbArc
 50
162.3463876628145
 51
257.6536123371777
  0
ARC
  5
27698
330
18
100
AcDbEntity
  8
細線
100
AcDbCircle
 10
-88.52197124871322
 20
878.749117203219
 30
0.0
 40
0.5
100
AcDbArc
 50
222.3463876628231
 51
317.6536123371785
  0
CIRCLE
  5
27699
330
18
100
AcDbEntity
  8
細線
100
AcDbCircle
 10
49.71740447324457
 20
820.4084929251996
 30
0.0
 40
3.5
  0
ARC
  5
2769A
330
18
100
AcDbEntity
  8
細線
100
AcDbCircle
 10
49.43787990453387
 20
819.3652930328074
 30
0.0
 40
0.5
100
AcDbArc
 50
27.34638766281458
 51
122.6536123371775
  0
CIRCLE
  5
2769B
330
18
100
AcDbEntity
  8
細線
100
AcDbCircle
 10
49.71740447324457
 20
820.4084929251996
 30
0.0
 40
0.8299999999999998
  0
ARC
  5
2769C
330
18
100
AcDbEntity
  8
細線
100
AcDbCircle
 10
50.76060436563665
 20
820.6880174939103
 30
0.0
 40
0.5
100
AcDbArc
 50
147.3463876628259
 51
242.6536123371793
  0
ARC
  5
2769D
330
18
100
AcDbEntity
  8
細線
100
AcDbCircle
 10
50.48107979692606
 20
819.6448176015183
 30
0.0
 40
0.5
100
AcDbArc
 50
87.34638766282326
 51
182.6536123371784
  0
ARC
  5
2769E
330
18
100
AcDbEntity
  8
細線
100
AcDbCircle
 10
48.6742045808524
 20
820.1289683564889
 30
0.0
 40
0.5
100
AcDbArc
 50
327.3463876628258
 51
62.65361233717936
  0
ARC
  5
2769F
330
18
100
AcDbEntity
  8
細線
100
AcDbCircle
 10
49.9969290419553
 20
821.4516928175918
 30
0.0
 40
0.5
100
AcDbArc
 50
207.3463876628145
 51
302.6536123371777
  0
ARC
  5
276A0
330
18
100
AcDbEntity
  8
細線
100
AcDbCircle
 10
48.95372914956311
 20
821.1721682488812
 30
0.0
 40
0.5
100
AcDbArc
 50
267.3463876628232
 51
2.653612337178516
  0
CIRCLE
  5
276A1
330
18
100
AcDbEntity
  8
細線
100
AcDbCircle
 10
187.9567801951985
 20
877.6691172032283
 30
0.0
 40
3.5
  0
ARC
  5
276A2
330
18
100
AcDbEntity
  8
細線
100
AcDbCircle
 10
188.4967801951986
 20
876.7338097671412
 30
0.0
 40
0.5
100
AcDbArc
 50
72.34638766281458
 51
167.6536123371777
  0
CIRCLE
  5
276A3
330
18
100
AcDbEntity
  8
細線
100
AcDbCircle
 10
187.9567801951985
 20
877.6691172032283
 30
0.0
 40
0.8299999999999998
  0
ARC
  5
276A4
330
18
100
AcDbEntity
  8
細線
100
AcDbCircle
 10
188.4967801951986
 20
878.6044246393156
 30
0.0
 40
0.5
100
AcDbArc
 50
192.3463876628258
 51
287.6536123371792
  0
ARC
  5
276A5
330
18
100
AcDbEntity
  8
細線
100
AcDbCircle
 10
189.0367801951985
 20
877.6691172032283
 30
0.0
 40
0.5
100
AcDbArc
 50
132.346387662823
 51
227.6536123371784
  0
ARC
  5
276A6
330
18
100
AcDbEntity
  8
細線
100
AcDbCircle
 10
187.4167801951985
 20
876.7338097671412
 30
0.0
 40
0.5
100
AcDbArc
 50
12.34638766282595
 51
107.6536123371792
  0
ARC
  5
276A7
330
18
100
AcDbEntity
  8
細線
100
AcDbCircle
 10
187.4167801951986
 20
878.6044246393155
 30
0.0
 40
0.5
100
AcDbArc
 50
252.3463876628145
 51
347.6536123371776
  0
ARC
  5
276A8
330
18
100
AcDbEntity
  8
細線
100
AcDbCircle
 10
186.8767801951985
 20
877.6691172032283
 30
0.0
 40
0.5
100
AcDbArc
 50
312.3463876628231
 51
47.65361233717853
  0
CIRCLE
  5
276A9
330
18
100
AcDbEntity
  8
細線
100
AcDbCircle
 10
245.2174044732178
 20
1015.908492925186
 30
0.0
 40
3.5
  0
ARC
  5
276AA
330
18
100
AcDbEntity
  8
細線
100
AcDbCircle
 10
246.2606043656101
 20
1015.628968356475
 30
0.0
 40
0.5
100
AcDbArc
 50
117.3463876628145
 51
212.6536123371775
  0
CIRCLE
  5
276AB
330
18
100
AcDbEntity
  8
細線
100
AcDbCircle
 10
245.2174044732178
 20
1015.908492925186
 30
0.0
 40
0.8299999999999998
  0
ARC
  5
276AC
330
18
100
AcDbEntity
  8
細線
100
AcDbCircle
 10
244.937879904507
 20
1016.951692817577
 30
0.0
 40
0.5
100
AcDbArc
 50
237.3463876628258
 51
332.6536123371793
  0
ARC
  5
276AD
330
18
100
AcDbEntity
  8
細線
100
AcDbCircle
 10
245.9810797968991
 20
1016.672168248867
 30
0.0
 40
0.5
100
AcDbArc
 50
177.3463876628231
 51
272.6536123371785
  0
ARC
  5
276AE
330
18
100
AcDbEntity
  8
細線
100
AcDbCircle
 10
245.4969290419284
 20
1014.865293032792
 30
0.0
 40
0.5
100
AcDbArc
 50
57.34638766282591
 51
152.6536123371793
  0
ARC
  5
276AF
330
18
100
AcDbEntity
  8
細線
100
AcDbCircle
 10
244.1742045808258
 20
1016.188017493896
 30
0.0
 40
0.5
100
AcDbArc
 50
297.3463876628144
 51
32.65361233717767
  0
ARC
  5
276B0
330
18
100
AcDbEntity
  8
細線
100
AcDbCircle
 10
244.4537291495361
 20
1015.144817601504
 30
0.0
 40
0.5
100
AcDbArc
 50
357.3463876628231
 51
92.6536123371785
  0
CIRCLE
  5
276B1
102
{ACAD_REACTORS
330
27AD9
102
}
330
18
100
AcDbEntity
  8
細線
100
AcDbCircle
 10
187.9567801951889
 20
1154.14786864714
 30
0.0
 40
3.5
  0
ARC
  5
276B2
102
{ACAD_REACTORS
330
27AD9
102
}
330
18
100
AcDbEntity
  8
細線
100
AcDbCircle
 10
188.8920876312763
 20
1154.68786864714
 30
0.0
 40
0.5
100
AcDbArc
 50
162.3463876628145
 51
257.6536123371776
  0
CIRCLE
  5
276B3
102
{ACAD_REACTORS
330
27AD9
102
}
330
18
100
AcDbEntity
  8
細線
100
AcDbCircle
 10
187.9567801951889
 20
1154.14786864714
 30
0.0
 40
0.8299999999999998
  0
ARC
  5
276B4
102
{ACAD_REACTORS
330
27AD9
102
}
330
18
100
AcDbEntity
  8
細線
100
AcDbCircle
 10
187.0214727591018
 20
1154.68786864714
 30
0.0
 40
0.5
100
AcDbArc
 50
282.3463876628258
 51
17.65361233717931
  0
ARC
  5
276B5
102
{ACAD_REACTORS
330
27AD9
102
}
330
18
100
AcDbEntity
  8
細線
100
AcDbCircle
 10
187.9567801951889
 20
1155.227868647139
 30
0.0
 40
0.5
100
AcDbArc
 50
222.3463876628231
 51
317.6536123371783
  0
ARC
  5
276B6
102
{ACAD_REACTORS
330
27AD9
102
}
330
18
100
AcDbEntity
  8
細線
100
AcDbCircle
 10
188.892087631276
 20
1153.60786864714
 30
0.0
 40
0.5
100
AcDbArc
 50
102.3463876628259
 51
197.6536123371793
  0
ARC
  5
276B7
102
{ACAD_REACTORS
330
27AD9
102
}
330
18
100
AcDbEntity
  8
細線
100
AcDbCircle
 10
187.0214727591019
 20
1153.60786864714
 30
0.0
 40
0.5
100
AcDbArc
 50
342.3463876628145
 51
77.65361233717769
  0
ARC
  5
276B8
102
{ACAD_REACTORS
330
27AD9
102
}
330
18
100
AcDbEntity
  8
細線
100
AcDbCircle
 10
187.9567801951889
 20
1153.06786864714
 30
0.0
 40
0.5
100
AcDbArc
 50
42.34638766282314
 51
137.6536123371784
  0
LINE
  5
276BA
330
18
100
AcDbEntity
  8
0
100
AcDbLine
 10
393.5062631943408
 20
916.5960354896141
 30
0.0
 11
387.5062632853876
 21
916.5949902330222
 31
0.0
  0
LINE
  5
276BB
330
18
100
AcDbEntity
  8
0
100
AcDbLine
 10
387.5088715726868
 20
901.622854505217
 30
0.0
 11
393.5088714816401
 21
901.6238997618083
 31
0.0
  0
LINE
  5
276BC
330
18
100
AcDbEntity
  8
0
100
AcDbLine
 10
387.5091362033298
 20
900.1038171248152
 30
0.0
 11
393.509136112283
 21
900.1048623814066
 31
0.0
  0
LINE
  5
276BD
330
18
100
AcDbEntity
  8
0
100
AcDbLine
 10
393.5099215924108
 20
895.5960358082776
 30
0.0
 11
387.5099216834578
 21
895.5949905516861
 31
0.0
  0
LINE
  5
276BE
330
18
100
AcDbEntity
  8
0
100
AcDbLine
 10
393.5070486744688
 20
912.0872089164853
 30
0.0
 11
387.5070487655156
 21
912.0861636598936
 31
0.0
  0
LINE
  5
276BF
330
18
100
AcDbEntity
  8
0
100
AcDbLine
 10
393.5073133051117
 20
910.5681715360832
 30
0.0
 11
387.5073133961585
 21
910.5671262794921
 31
0.0
  0
LINE
  5
276C0
330
18
100
AcDbEntity
  8
0
100
AcDbLine
 10
387.5088715726868
 20
901.622854505217
 30
0.0
 11
387.5091362033298
 21
900.1038171248152
 31
0.0
  0
LINE
  5
276C1
330
18
100
AcDbEntity
  8
0
100
AcDbLine
 10
386.5064673744683
 20
915.4233874699375
 30
0.0
 11
386.5097176247262
 21
896.7662448959071
 31
0.0
  0
LINE
  5
276C2
330
18
100
AcDbEntity
  8
0
100
AcDbLine
 10
387.5099216834578
 20
895.5949905516861
 30
0.0
 11
383.0090034191661
 21
900.8656351006795
 31
0.0
  0
ARC
  5
276C3
330
18
100
AcDbEntity
  8
0
100
AcDbCircle
 10
395.483665628215
 20
895.897464471089
 30
0.0
 40
9.015903847971632
100
AcDbArc
 50
152.1895426094165
 51
174.4703481467429
  0
LINE
  5
276C4
330
18
100
AcDbEntity
  8
0
100
AcDbLine
 10
370.9924003919293
 20
908.1050989034567
 30
0.0
 11
383.0331419722107
 21
908.1050989034563
 31
0.0
  0
LINE
  5
276C5
330
18
100
AcDbEntity
  8
0
100
AcDbLine
 10
370.9924003919298
 20
904.1050989034566
 30
0.0
 11
383.0331419722107
 21
904.1050989034566
 31
0.0
  0
ARC
  5
276C6
330
18
100
AcDbEntity
  8
0
100
AcDbCircle
 10
372.1164984349667
 20
907.1050989030563
 30
0.0
 40
1.504525310907321
100
AcDbArc
 50
138.3436407292487
 51
221.656359270751
  0
ARC
  5
276C7
330
18
100
AcDbEntity
  8
0
100
AcDbCircle
 10
369.868302347469
 20
907.1050989030563
 30
0.0
 40
1.504525310907321
100
AcDbArc
 50
318.3436407292488
 51
41.6563592707512
  0
ARC
  5
276C8
330
18
100
AcDbEntity
  8
0
100
AcDbCircle
 10
372.1164984349673
 20
905.1050989038566
 30
0.0
 40
1.504525310907321
100
AcDbArc
 50
138.3436407292487
 51
221.656359270751
  0
LINE
  5
276C9
330
18
100
AcDbEntity
  8
0
100
AcDbLine
 10
387.5070487655156
 20
912.0861636598936
 30
0.0
 11
387.5073133961585
 21
910.5671262794921
 31
0.0
  0
LINE
  5
276CA
330
18
100
AcDbEntity
  8
0
100
AcDbLine
 10
383.0071816862494
 20
911.3227777991422
 30
0.0
 11
383.0090034191661
 21
900.8656351006795
 31
0.0
  0
ARC
  5
276CB
330
18
100
AcDbEntity
  8
0
100
AcDbCircle
 10
397.0080923402656
 20
906.0966453819574
 30
0.0
 40
10.50000000000042
100
AcDbArc
 50
154.8012161684953
 51
205.2187467620091
  0
LINE
  5
276CC
330
18
100
AcDbEntity
  8
0
100
AcDbLine
 10
387.5062632853881
 20
916.5949902330222
 30
0.0
 11
383.0071816862494
 21
911.3227777991422
 31
0.0
  0
ARC
  5
276CD
330
18
100
AcDbEntity
  8
0
100
AcDbCircle
 10
395.4801121337736
 20
916.2952945347424
 30
0.0
 40
9.015903847971632
100
AcDbArc
 50
185.5496147837551
 51
207.8304203210879
  0
LINE
  5
276CE
330
18
100
AcDbEntity
  8
0
100
AcDbLine
 10
396.5097473374557
 20
896.5965584213989
 30
0.0
 11
396.5064373582493
 21
915.5965581330839
 31
0.0
  0
LINE
  5
276CF
330
18
100
AcDbEntity
  8
0
100
AcDbLine
 10
393.5062631943408
 20
916.5960354896141
 30
0.0
 11
393.5099215924108
 21
895.5960358082776
 31
0.0
  0
LINE
  5
276D0
330
18
100
AcDbEntity
  8
0
100
AcDbLine
 10
401.5099214710146
 20
895.597429483733
 30
0.0
 11
401.5062630729446
 21
916.5974291650693
 31
0.0
  0
LINE
  5
276D1
330
18
100
AcDbEntity
  8
0
100
AcDbLine
 10
398.5062631184686
 20
916.5969065367734
 30
0.0
 11
398.5099215165386
 21
895.5969068554372
 31
0.0
  0
LINE
  5
276D2
330
18
100
AcDbEntity
  8
0
100
AcDbLine
 10
402.509660141693
 20
897.0976036704032
 30
0.0
 11
401.5096601568666
 21
897.0974294609712
 31
0.0
  0
LINE
  5
276D3
330
18
100
AcDbEntity
  8
0
100
AcDbLine
 10
396.5097473374557
 20
896.5965584213989
 30
0.0
 11
393.5097473829789
 21
896.5960357931031
 31
0.0
  0
LINE
  5
276D4
330
18
100
AcDbEntity
  8
0
100
AcDbLine
 10
398.5093814672996
 20
898.6969068083967
 30
0.0
 11
396.5093814976486
 21
898.6965583895329
 31
0.0
  0
LINE
  5
276D5
330
18
100
AcDbEntity
  8
0
100
AcDbLine
 10
398.5091360364106
 20
900.1057334285661
 30
0.0
 11
401.5091359908868
 21
900.106256056862
 31
0.0
  0
LINE
  5
276D6
330
18
100
AcDbEntity
  8
0
100
AcDbLine
 10
401.5099214710146
 20
895.597429483733
 30
0.0
 11
398.5099215165386
 21
895.5969068554372
 31
0.0
  0
LINE
  5
276D7
330
18
100
AcDbEntity
  8
中心線
100
AcDbLine
 10
407.8020204607527
 20
905.9084929251719
 30
0.0
 11
379.143064756483
 21
905.9084929251719
 31
0.0
  0
LINE
  5
276D8
330
18
100
AcDbEntity
  8
0
100
AcDbLine
 10
402.5065243719184
 20
915.0976033972627
 30
0.0
 11
401.5065243870926
 21
915.0974291878307
 31
0.0
  0
LINE
  5
276D9
330
18
100
AcDbEntity
  8
0
100
AcDbLine
 10
396.5064373582493
 20
915.5965581330839
 30
0.0
 11
393.5064374037726
 21
915.5960355047882
 31
0.0
  0
LINE
  5
276DA
330
18
100
AcDbEntity
  8
0
100
AcDbLine
 10
398.5068031677075
 20
913.4969065838147
 30
0.0
 11
396.5068031980564
 21
913.4965581649513
 31
0.0
  0
LINE
  5
276DB
330
18
100
AcDbEntity
  8
0
100
AcDbLine
 10
401.5062630729446
 20
916.5974291650693
 30
0.0
 11
398.5062631184686
 21
916.5969065367734
 31
0.0
  0
LINE
  5
276DC
330
18
100
AcDbEntity
  8
0
100
AcDbLine
 10
398.5088714057676
 20
901.6247708089681
 30
0.0
 11
401.5088713602438
 21
901.6252934372639
 31
0.0
  0
LINE
  5
276DD
330
18
100
AcDbEntity
  8
0
100
AcDbLine
 10
401.5070485530726
 20
912.0886025919404
 30
0.0
 11
398.5070485985965
 21
912.0880799636447
 31
0.0
  0
LINE
  5
276DE
330
18
100
AcDbEntity
  8
0
100
AcDbLine
 10
401.5073131837156
 20
910.5695652115384
 30
0.0
 11
398.5073132292393
 21
910.5690425832428
 31
0.0
  0
LINE
  5
27701
330
18
100
AcDbEntity
  8
0
100
AcDbLine
 10
-152.782595526762
 20
460.3427692718375
 30
0.0
 11
252.2174044732373
 21
460.3427692718375
 31
0.0
  0
LINE
  5
27704
330
18
100
AcDbEntity
  8
0
  6
ByBlock
100
AcDbLine
 10
-150.2825955267624
 20
460.3427692718375
 30
0.0
 11
-150.2825955267624
 21
459.0427692718375
 31
0.0
  0
LINE
  5
27705
330
18
100
AcDbEntity
  8
0
  6
ByBlock
100
AcDbLine
 10
249.7174044732374
 20
460.3427692718375
 30
0.0
 11
249.7174044732374
 21
459.0427692718375
 31
0.0
  0
LINE
  5
278AE
330
18
100
AcDbEntity
  8
破線
  6
HIDDEN
100
AcDbLine
 10
134.7174044732377
 20
440.5427692718401
 30
0.0
 11
49.71740447323782
 21
440.5427692718374
 31
0.0
  0
LINE
  5
278AF
330
18
100
AcDbEntity
  8
破線
  6
HIDDEN
100
AcDbLine
 10
-35.28259552676285
 20
440.5427692718374
 30
0.0
 11
49.71740447323711
 21
440.5427692718374
 31
0.0
  0
LINE
  5
278B0
330
18
100
AcDbEntity
  8
破線
  6
ByBlock
100
AcDbLine
 10
-35.28259552676288
 20
439.0427692718374
 30
0.0
 11
-35.28259552676285
 21
440.5427692718374
 31
0.0
  0
LINE
  5
278B1
330
18
100
AcDbEntity
  8
破線
  6
ByBlock
100
AcDbLine
 10
134.7174044732377
 20
439.0427692718401
 30
0.0
 11
134.7174044732377
 21
440.5427692718401
 31
0.0
  0
CIRCLE
  5
27ADA
102
{ACAD_REACTORS
330
27AE2
102
}
330
18
100
AcDbEntity
  8
細線
100
AcDbCircle
 10
605.5155639446293
 20
1095.908492925171
 30
0.0
 40
3.5
  0
ARC
  5
27ADB
102
{ACAD_REACTORS
330
27AE2
102
}
330
18
100
AcDbEntity
  8
細線
100
AcDbCircle
 10
605.5155639446293
 20
1094.828492925171
 30
0.0
 40
0.5
100
AcDbArc
 50
42.34638766282314
 51
137.6536123371784
  0
ARC
  5
27ADC
102
{ACAD_REACTORS
330
27AE2
102
}
330
18
100
AcDbEntity
  8
細線
100
AcDbCircle
 10
604.5802565085422
 20
1095.368492925171
 30
0.0
 40
0.5
100
AcDbArc
 50
342.3463876628145
 51
77.65361233717769
  0
ARC
  5
27ADD
102
{ACAD_REACTORS
330
27AE2
102
}
330
18
100
AcDbEntity
  8
細線
100
AcDbCircle
 10
606.4508713807166
 20
1095.368492925171
 30
0.0
 40
0.5
100
AcDbArc
 50
102.3463876628259
 51
197.6536123371793
  0
ARC
  5
27ADE
102
{ACAD_REACTORS
330
27AE2
102
}
330
18
100
AcDbEntity
  8
細線
100
AcDbCircle
 10
605.5155639446293
 20
1096.988492925171
 30
0.0
 40
0.5
100
AcDbArc
 50
222.3463876628231
 51
317.6536123371783
  0
ARC
  5
27ADF
102
{ACAD_REACTORS
330
27AE2
102
}
330
18
100
AcDbEntity
  8
細線
100
AcDbCircle
 10
604.5802565085422
 20
1096.44849292517
 30
0.0
 40
0.5
100
AcDbArc
 50
282.3463876628258
 51
17.65361233717931
  0
CIRCLE
  5
27AE0
102
{ACAD_REACTORS
330
27AE2
102
}
330
18
100
AcDbEntity
  8
細線
100
AcDbCircle
 10
605.5155639446293
 20
1095.908492925171
 30
0.0
 40
0.8299999999999998
  0
ARC
  5
27AE1
102
{ACAD_REACTORS
330
27AE2
102
}
330
18
100
AcDbEntity
  8
細線
100
AcDbCircle
 10
606.4508713807168
 20
1096.448492925172
 30
0.0
 40
0.5
100
AcDbArc
 50
162.3463876628145
 51
257.6536123371776
  0
CIRCLE
  5
27AE3
102
{ACAD_REACTORS
330
27AEB
102
}
330
18
100
AcDbEntity
  8
細線
100
AcDbCircle
 10
525.5155639446293
 20
1015.908492925172
 30
0.0
 40
3.5
  0
ARC
  5
27AE4
102
{ACAD_REACTORS
330
27AEB
102
}
330
18
100
AcDbEntity
  8
細線
100
AcDbCircle
 10
525.5155639446293
 20
1014.828492925172
 30
0.0
 40
0.5
100
AcDbArc
 50
42.34638766282314
 51
137.6536123371784
  0
ARC
  5
27AE5
102
{ACAD_REACTORS
330
27AEB
102
}
330
18
100
AcDbEntity
  8
細線
100
AcDbCircle
 10
524.5802565085423
 20
1015.368492925172
 30
0.0
 40
0.5
100
AcDbArc
 50
342.3463876628145
 51
77.65361233717769
  0
ARC
  5
27AE6
102
{ACAD_REACTORS
330
27AEB
102
}
330
18
100
AcDbEntity
  8
細線
100
AcDbCircle
 10
526.4508713807166
 20
1015.368492925172
 30
0.0
 40
0.5
100
AcDbArc
 50
102.3463876628259
 51
197.6536123371793
  0
ARC
  5
27AE7
102
{ACAD_REACTORS
330
27AEB
102
}
330
18
100
AcDbEntity
  8
細線
100
AcDbCircle
 10
525.5155639446293
 20
1016.988492925172
 30
0.0
 40
0.5
100
AcDbArc
 50
222.3463876628231
 51
317.6536123371783
  0
ARC
  5
27AE8
102
{ACAD_REACTORS
330
27AEB
102
}
330
18
100
AcDbEntity
  8
細線
100
AcDbCircle
 10
524.5802565085423
 20
1016.448492925171
 30
0.0
 40
0.5
100
AcDbArc
 50
282.3463876628258
 51
17.65361233717931
  0
CIRCLE
  5
27AE9
102
{ACAD_REACTORS
330
27AEB
102
}
330
18
100
AcDbEntity
  8
細線
100
AcDbCircle
 10
525.5155639446293
 20
1015.908492925172
 30
0.0
 40
0.8299999999999998
  0
ARC
  5
27AEA
102
{ACAD_REACTORS
330
27AEB
102
}
330
18
100
AcDbEntity
  8
細線
100
AcDbCircle
 10
526.4508713807166
 20
1016.448492925172
 30
0.0
 40
0.5
100
AcDbArc
 50
162.3463876628145
 51
257.6536123371776
  0
CIRCLE
  5
27AEC
102
{ACAD_REACTORS
330
27AF4
102
}
330
18
100
AcDbEntity
  8
細線
100
AcDbCircle
 10
605.5155639446293
 20
935.9084929251718
 30
0.0
 40
3.5
  0
ARC
  5
27AED
102
{ACAD_REACTORS
330
27AF4
102
}
330
18
100
AcDbEntity
  8
細線
100
AcDbCircle
 10
605.5155639446293
 20
934.8284929251716
 30
0.0
 40
0.5
100
AcDbArc
 50
42.34638766282314
 51
137.6536123371784
  0
ARC
  5
27AEE
102
{ACAD_REACTORS
330
27AF4
102
}
330
18
100
AcDbEntity
  8
細線
100
AcDbCircle
 10
604.5802565085422
 20
935.3684929251718
 30
0.0
 40
0.5
100
AcDbArc
 50
342.3463876628145
 51
77.65361233717769
  0
ARC
  5
27AEF
102
{ACAD_REACTORS
330
27AF4
102
}
330
18
100
AcDbEntity
  8
細線
100
AcDbCircle
 10
606.4508713807166
 20
935.3684929251718
 30
0.0
 40
0.5
100
AcDbArc
 50
102.3463876628259
 51
197.6536123371793
  0
ARC
  5
27AF0
102
{ACAD_REACTORS
330
27AF4
102
}
330
18
100
AcDbEntity
  8
細線
100
AcDbCircle
 10
605.5155639446293
 20
936.9884929251718
 30
0.0
 40
0.5
100
AcDbArc
 50
222.3463876628231
 51
317.6536123371783
  0
ARC
  5
27AF1
102
{ACAD_REACTORS
330
27AF4
102
}
330
18
100
AcDbEntity
  8
細線
100
AcDbCircle
 10
604.5802565085422
 20
936.4484929251712
 30
0.0
 40
0.5
100
AcDbArc
 50
282.3463876628258
 51
17.65361233717931
  0
CIRCLE
  5
27AF2
102
{ACAD_REACTORS
330
27AF4
102
}
330
18
100
AcDbEntity
  8
細線
100
AcDbCircle
 10
605.5155639446293
 20
935.9084929251718
 30
0.0
 40
0.8299999999999998
  0
ARC
  5
27AF3
102
{ACAD_REACTORS
330
27AF4
102
}
330
18
100
AcDbEntity
  8
細線
100
AcDbCircle
 10
606.4508713807168
 20
936.448492925172
 30
0.0
 40
0.5
100
AcDbArc
 50
162.3463876628145
 51
257.6536123371776
  0
CIRCLE
  5
27AF5
102
{ACAD_REACTORS
330
27AFD
102
}
330
18
100
AcDbEntity
  8
細線
100
AcDbCircle
 10
685.5155639446293
 20
1015.908492925172
 30
0.0
 40
3.5
  0
ARC
  5
27AF6
102
{ACAD_REACTORS
330
27AFD
102
}
330
18
100
AcDbEntity
  8
細線
100
AcDbCircle
 10
685.5155639446293
 20
1014.828492925172
 30
0.0
 40
0.5
100
AcDbArc
 50
42.34638766282314
 51
137.6536123371784
  0
ARC
  5
27AF7
102
{ACAD_REACTORS
330
27AFD
102
}
330
18
100
AcDbEntity
  8
細線
100
AcDbCircle
 10
684.5802565085421
 20
1015.368492925172
 30
0.0
 40
0.5
100
AcDbArc
 50
342.3463876628145
 51
77.65361233717769
  0
ARC
  5
27AF8
102
{ACAD_REACTORS
330
27AFD
102
}
330
18
100
AcDbEntity
  8
細線
100
AcDbCircle
 10
686.4508713807166
 20
1015.368492925172
 30
0.0
 40
0.5
100
AcDbArc
 50
102.3463876628259
 51
197.6536123371793
  0
ARC
  5
27AF9
102
{ACAD_REACTORS
330
27AFD
102
}
330
18
100
AcDbEntity
  8
細線
100
AcDbCircle
 10
685.5155639446293
 20
1016.988492925172
 30
0.0
 40
0.5
100
AcDbArc
 50
222.3463876628231
 51
317.6536123371783
  0
ARC
  5
27AFA
102
{ACAD_REACTORS
330
27AFD
102
}
330
18
100
AcDbEntity
  8
細線
100
AcDbCircle
 10
684.5802565085421
 20
1016.448492925171
 30
0.0
 40
0.5
100
AcDbArc
 50
282.3463876628258
 51
17.65361233717931
  0
CIRCLE
  5
27AFB
102
{ACAD_REACTORS
330
27AFD
102
}
330
18
100
AcDbEntity
  8
細線
100
AcDbCircle
 10
685.5155639446293
 20
1015.908492925172
 30
0.0
 40
0.8299999999999998
  0
ARC
  5
27AFC
102
{ACAD_REACTORS
330
27AFD
102
}
330
18
100
AcDbEntity
  8
細線
100
AcDbCircle
 10
686.4508713807167
 20
1016.448492925172
 30
0.0
 40
0.5
100
AcDbArc
 50
162.3463876628145
 51
257.6536123371776
  0
LINE
  5
27C4C
330
18
100
AcDbEntity
  8
0
100
AcDbLine
 10
-331.6544901310273
 20
1107.070613175151
 30
0.0
 11
-314.9513605904779
 21
1095.652937684566
 31
0.0
  0
LINE
  5
27C4D
330
18
100
AcDbEntity
  8
0
100
AcDbLine
 10
-331.6531581729999
 20
1111.279225562672
 30
0.0
 11
-314.6663087647585
 21
1099.655646304132
 31
0.0
  0
LINE
  5
27C4E
330
18
100
AcDbEntity
  8
0
100
AcDbLine
 10
-331.127957060208
 20
1110.919846573991
 30
0.0
 11
-314.6665167267062
 21
1122.174580471773
 31
0.0
  0
LINE
  5
27C4F
330
18
100
AcDbEntity
  8
0
100
AcDbLine
 10
-331.6512024263241
 20
1114.777519149974
 30
0.0
 11
-315.0295774654701
 21
1126.168415088755
 31
0.0
  0
LINE
  5
27C50
330
18
100
AcDbEntity
  8
0
100
AcDbLine
 10
-380.6834870569491
 20
1117.708486872129
 30
0.0
 11
-393.7835321584252
 21
1117.708486872129
 31
0.0
  0
LINE
  5
27C51
330
18
100
AcDbEntity
  8
0
100
AcDbLine
 10
-380.6834870569505
 20
1104.10848687213
 30
0.0
 11
-393.7835321584252
 21
1104.10848687213
 31
0.0
  0
LINE
  5
27C52
330
18
100
AcDbEntity
  8
0
100
AcDbLine
 10
-386.3035321584248
 20
1120.137058300701
 30
0.0
 11
-386.3035321584252
 21
1121.526201157843
 31
0.0
  0
LINE
  5
27C53
330
18
100
AcDbEntity
  8
0
100
AcDbLine
 10
-397.0863893012823
 20
1120.137058300701
 30
0.0
 11
-397.0863893012823
 21
1121.108486872129
 31
0.0
  0
LINE
  5
27C54
330
18
100
AcDbEntity
  8
0
100
AcDbLine
 10
-398.5435321584255
 20
1121.108486872129
 30
0.0
 11
-399.5149607298539
 21
1120.137058300701
 31
0.0
  0
LINE
  5
27C55
330
18
100
AcDbEntity
  8
0
100
AcDbLine
 10
-393.7835321584252
 20
1117.708486872129
 30
0.0
 11
-393.7835321584252
 21
1121.526201157843
 31
0.0
  0
LINE
  5
27C56
330
18
100
AcDbEntity
  8
0
100
AcDbLine
 10
-399.5149607298539
 20
1118.874201157843
 30
0.0
 11
-398.5435321584255
 21
1117.902772586415
 31
0.0
  0
LINE
  5
27C57
330
18
100
AcDbEntity
  8
0
100
AcDbLine
 10
-403.2835321584256
 20
1116.733486872129
 30
0.0
 11
-393.7835321584252
 21
1116.733486872129
 31
0.0
  0
LINE
  5
27C58
330
18
100
AcDbEntity
  8
0
100
AcDbLine
 10
-403.2835321584256
 20
1105.083486872129
 30
0.0
 11
-393.7835321584252
 21
1105.083486872129
 31
0.0
  0
LINE
  5
27C59
330
18
100
AcDbEntity
  8
0
100
AcDbLine
 10
-403.2835321584256
 20
1108.533486872129
 30
0.0
 11
-393.7835321584252
 21
1108.533486872129
 31
0.0
  0
LINE
  5
27C5A
330
18
100
AcDbEntity
  8
0
100
AcDbLine
 10
-403.2835321584256
 20
1109.183486872129
 30
0.0
 11
-393.7835321584252
 21
1109.183486872129
 31
0.0
  0
LINE
  5
27C5B
330
18
100
AcDbEntity
  8
0
100
AcDbLine
 10
-403.2835321584256
 20
1112.633486872129
 30
0.0
 11
-393.7835321584252
 21
1112.633486872129
 31
0.0
  0
LINE
  5
27C5C
330
18
100
AcDbEntity
  8
0
100
AcDbLine
 10
-403.2835321584256
 20
1113.283486872129
 30
0.0
 11
-393.7835321584252
 21
1113.283486872129
 31
0.0
  0
LINE
  5
27C5D
330
18
100
AcDbEntity
  8
0
100
AcDbLine
 10
-399.5149607298539
 20
1118.874201157843
 30
0.0
 11
-399.5149607298539
 21
1120.137058300701
 31
0.0
  0
LINE
  5
27C5E
330
18
100
AcDbEntity
  8
0
100
AcDbLine
 10
-403.2835321584256
 20
1109.183486872129
 30
0.0
 11
-403.2835321584256
 21
1112.633486872129
 31
0.0
  0
LINE
  5
27C5F
330
18
100
AcDbEntity
  8
0
100
AcDbLine
 10
-403.2835321584252
 20
1105.083486872129
 30
0.0
 11
-403.2835321584256
 21
1108.53348687213
 31
0.0
  0
LINE
  5
27C60
330
18
100
AcDbEntity
  8
0
100
AcDbLine
 10
-403.2835321584256
 20
1113.283486872129
 30
0.0
 11
-403.2835321584256
 21
1116.733486872129
 31
0.0
  0
LINE
  5
27C61
330
18
100
AcDbEntity
  8
0
100
AcDbLine
 10
-391.7695898447208
 20
1119.173244852498
 30
0.0
 11
-386.3035321584248
 21
1120.137058300701
 31
0.0
  0
ARC
  5
27C62
330
18
100
AcDbEntity
  8
0
100
AcDbCircle
 10
-391.6852464441398
 20
1118.694909658177
 30
0.0
 40
0.4857142857142857
100
AcDbArc
 50
100.0000000000029
 51
180.000000000013
  0
ARC
  5
27C63
330
18
100
AcDbEntity
  8
0
100
AcDbCircle
 10
-391.6852464441394
 20
1118.194201157842
 30
0.0
 40
0.4857142857142857
100
AcDbArc
 50
180.000000000013
 51
270.0
  0
LINE
  5
27C64
330
18
100
AcDbEntity
  8
0
100
AcDbLine
 10
-392.1709607298535
 20
1118.194201157842
 30
0.0
 11
-392.1709607298538
 21
1118.694909658177
 31
0.0
  0
LINE
  5
27C65
330
18
100
AcDbEntity
  8
0
100
AcDbLine
 10
-397.1835321584258
 20
1118.971344014986
 30
0.0
 11
-393.7835321584252
 21
1118.971344014986
 31
0.0
  0
LINE
  5
27C66
330
18
100
AcDbEntity
  8
0
100
AcDbLine
 10
-397.0863893012823
 20
1120.137058300701
 30
0.0
 11
-393.7835321584252
 21
1120.137058300701
 31
0.0
  0
LINE
  5
27C67
330
18
100
AcDbEntity
  8
0
100
AcDbLine
 10
-397.0863893012823
 20
1117.902772586415
 30
0.0
 11
-397.1835321584258
 21
1118.971344014986
 31
0.0
  0
LINE
  5
27C68
330
18
100
AcDbEntity
  8
0
100
AcDbLine
 10
-398.5435321584255
 20
1117.902772586415
 30
0.0
 11
-397.0863893012829
 21
1117.902772586415
 31
0.0
  0
LINE
  5
27C69
330
18
100
AcDbEntity
  8
0
100
AcDbLine
 10
-393.7835321584252
 20
1104.10848687213
 30
0.0
 11
-393.7835321584252
 21
1117.708486872129
 31
0.0
  0
LINE
  5
27C6A
330
18
100
AcDbEntity
  8
0
100
AcDbLine
 10
-387.2749607298536
 20
1121.10848687213
 30
0.0
 11
-387.2749607298536
 21
1121.526201157843
 31
0.0
  0
LINE
  5
27C6B
330
18
100
AcDbEntity
  8
0
100
AcDbLine
 10
-397.0863893012823
 20
1121.108486872129
 30
0.0
 11
-396.6686750155681
 21
1121.526201157843
 31
0.0
  0
LINE
  5
27C6C
330
18
100
AcDbEntity
  8
0
100
AcDbLine
 10
-398.5435321584255
 20
1121.108486872129
 30
0.0
 11
-387.2749607298536
 21
1121.10848687213
 31
0.0
  0
LINE
  5
27C6D
330
18
100
AcDbEntity
  8
0
100
AcDbLine
 10
-396.6686750155681
 20
1121.526201157843
 30
0.0
 11
-386.3035321584256
 21
1121.526201157843
 31
0.0
  0
LINE
  5
27C6E
330
18
100
AcDbEntity
  8
0
100
AcDbLine
 10
-357.1834870569499
 20
1113.848492925175
 30
0.0
 11
-342.18348705695
 21
1113.848492925175
 31
0.0
  0
LINE
  5
27C6F
330
18
100
AcDbEntity
  8
0
100
AcDbLine
 10
-357.1834870569499
 20
1107.968492925175
 30
0.0
 11
-342.18348705695
 21
1107.968492925175
 31
0.0
  0
LINE
  5
27C70
330
18
100
AcDbEntity
  8
0
100
AcDbLine
 10
-357.1834870569499
 20
1109.617282879513
 30
0.0
 11
-379.5834870569501
 21
1105.832807993669
 31
0.0
  0
LINE
  5
27C71
330
18
100
AcDbEntity
  8
0
100
AcDbLine
 10
-379.5834870569501
 20
1110.908492925175
 30
0.0
 11
-357.1834870569499
 21
1110.908492925175
 31
0.0
  0
LINE
  5
27C72
330
18
100
AcDbEntity
  8
0
100
AcDbLine
 10
-357.1834870569499
 20
1112.199702970837
 30
0.0
 11
-379.5834870569501
 21
1115.984177856682
 31
0.0
  0
LINE
  5
27C73
330
18
100
AcDbEntity
  8
0
100
AcDbLine
 10
-380.6834870569491
 20
1117.708486872129
 30
0.0
 11
-380.6834870569491
 21
1118.708492925172
 31
0.0
  0
LINE
  5
27C74
330
18
100
AcDbEntity
  8
0
100
AcDbLine
 10
-379.5834870569497
 20
1118.708492925172
 30
0.0
 11
-380.6834870569491
 21
1118.708492925172
 31
0.0
  0
LINE
  5
27C75
330
18
100
AcDbEntity
  8
0
100
AcDbLine
 10
-380.68348705695
 20
1103.108492925171
 30
0.0
 11
-380.6834870569505
 21
1104.10848687213
 31
0.0
  0
LINE
  5
27C76
330
18
100
AcDbEntity
  8
0
100
AcDbLine
 10
-379.5834870569497
 20
1103.108492925171
 30
0.0
 11
-380.6834870569491
 21
1103.108492925171
 31
0.0
  0
LINE
  5
27C77
330
18
100
AcDbEntity
  8
0
100
AcDbLine
 10
-379.5834870569506
 20
1103.108492925171
 30
0.0
 11
-379.5834870569497
 21
1118.708492925172
 31
0.0
  0
LINE
  5
27C78
330
18
100
AcDbEntity
  8
0
100
AcDbLine
 10
-357.1834870569499
 20
1107.968492925175
 30
0.0
 11
-357.1834870569499
 21
1113.848492925175
 31
0.0
  0
LINE
  5
27C79
330
18
100
AcDbEntity
  8
0
100
AcDbLine
 10
-342.18348705695
 20
1113.026378941632
 30
0.0
 11
-337.3003276099467
 21
1113.026378941632
 31
0.0
  0
LINE
  5
27C7A
330
18
100
AcDbEntity
  8
0
100
AcDbLine
 10
-342.18348705695
 20
1113.026378941632
 30
0.0
 11
-337.3041938589708
 21
1113.026378941632
 31
0.0
  0
LINE
  5
27C7B
330
18
100
AcDbEntity
  8
0
100
AcDbLine
 10
-342.18348705695
 20
1108.815057934545
 30
0.0
 11
-337.2976991178814
 21
1108.815057934545
 31
0.0
  0
LINE
  5
27C7C
330
18
100
AcDbEntity
  8
0
100
AcDbLine
 10
-342.18348705695
 20
1107.968492925175
 30
0.0
 11
-342.18348705695
 21
1113.848492925175
 31
0.0
  0
ARC
  5
27C7D
330
18
100
AcDbEntity
  8
0
100
AcDbCircle
 10
-337.3041938589707
 20
1123.026378941631
 30
0.0
 40
10.0
100
AcDbArc
 50
269.9999999999966
 51
304.4230669294388
  0
ARC
  5
27C7E
330
18
100
AcDbEntity
  8
0
100
AcDbCircle
 10
-337.3003276099467
 20
1103.026378941632
 30
0.0
 40
10.0
100
AcDbArc
 50
55.61736231583694
 51
90.0
  0
ARC
  5
27C7F
330
18
100
AcDbEntity
  8
0
100
AcDbCircle
 10
-337.2976991178816
 20
1098.815057934545
 30
0.0
 40
10.0
100
AcDbArc
 50
55.64485341677007
 51
89.99999999999673
  0
ARC
  5
27C80
330
18
100
AcDbEntity
  8
0
100
AcDbCircle
 10
-309.3081516036237
 20
1103.908492925173
 30
0.0
 40
10.0
100
AcDbArc
 50
235.6448534167726
 51
270.0
  0
ARC
  5
27C81
330
18
100
AcDbEntity
  8
0
100
AcDbCircle
 10
-309.0191393278117
 20
1107.908492925171
 30
0.0
 40
10.0
100
AcDbArc
 50
235.6173623158368
 51
270.0
  0
ARC
  5
27C82
330
18
100
AcDbEntity
  8
0
100
AcDbCircle
 10
-309.0225323744284
 20
1113.919555297298
 30
0.0
 40
10.0
100
AcDbArc
 50
90.00000000033869
 51
124.360528001109
  0
ARC
  5
27C83
330
18
100
AcDbEntity
  8
0
100
AcDbCircle
 10
-309.3765860328233
 20
1117.919555297099
 30
0.0
 40
10.0
100
AcDbArc
 50
89.99999999960268
 51
124.4230669294415
  0
LINE
  5
27EE2
330
18
100
AcDbEntity
  8
0
100
AcDbLine
 10
-150.5006638334761
 20
472.5427692718366
 30
0.0
 11
-150.5006638334761
 21
465.3427692718365
 31
0.0
  0
LINE
  5
27EE3
330
18
100
AcDbEntity
  8
0
100
AcDbLine
 10
-150.5006638334761
 20
465.3427692718366
 30
0.0
 11
-152.782595526762
 21
465.3427692718366
 31
0.0
  0
LINE
  5
27EE4
330
18
100
AcDbEntity
  8
0
100
AcDbLine
 10
-150.5006638334761
 20
472.5427692718366
 30
0.0
 11
-152.782595526762
 21
472.5427692718366
 31
0.0
  0
CIRCLE
  5
2872C
330
18
100
AcDbEntity
  8
細線
100
AcDbCircle
 10
49.71740447323185
 20
1015.908492925172
 30
0.0
 40
201.0
  0
LINE
  5
2874E
330
18
100
AcDbEntity
  8
0
100
AcDbLine
 10
251.2174044732375
 20
538.7427692718373
 30
0.0
 11
252.2174044732376
 21
537.7427692718375
 31
0.0
  0
LINE
  5
2874F
330
18
100
AcDbEntity
  8
0
100
AcDbLine
 10
-152.782595526762
 20
537.7427692718375
 30
0.0
 11
-151.782595526762
 21
538.7427692718374
 31
0.0
  0
MTEXT
  5
288F8
330
18
100
AcDbEntity
  8
中心線
  6
ByBlock
100
AcDbMText
 10
407.9408501903174
 20
261.0517136587505
 30
0.0
 40
24.0
 41
626.856075288277
 71
     1
 72
     5
  1
{\fＭＳ ゴシック|b0|i0|c128|p49;τDISCﾓｰﾀ D400-100-FP NMR-FFFBA2C-252AP}
 73
     1
 44
1.0
1001
ACAD
1000
MTEXTBEGIN
1070
    73
1070
     1
1070
    44
1040
1.0
1070
    74
1070
     0
1000
MTEXTEND
1000
MTEXTBEGIN
1070
    73
1070
     1
1070
    44
1040
1.0
1070
    74
1070
     0
1000
MTEXTEND
  0
CIRCLE
  5
28900
330
18
100
AcDbEntity
  8
0
100
AcDbCircle
 10
49.71740447323793
 20
1015.908492925172
 30
0.0
 40
74.99999999999906
  0
CIRCLE
  5
28901
330
18
100
AcDbEntity
  8
0
100
AcDbCircle
 10
49.71740447323793
 20
1015.908492925172
 30
0.0
 40
32.5
  0
CIRCLE
  5
28902
330
18
100
AcDbEntity
  8
0
  6
ByBlock
100
AcDbCircle
 10
605.5155639446293
 20
1015.908492925172
 30
0.0
 40
84.99999999999996
  0
VIEWPORT
  5
23
330
15
100
AcDbEntity
 67
     1
  8
0
100
AcDbViewport
 10
250.9434539317399
 20
144.016725508245
 30
0.0
 40
536.0630889673898
 41
284.1608763641296
 68
     2
 69
     1
 12
250.9434539317399
 22
144.016725508245
 13
0.0
 23
0.0
 14
10.0
 24
10.0
 15
10.0
 25
10.0
 16
0.0
 26
0.0
 36
1.0
 17
0.0
 27
0.0
 37
0.0
 42
50.0
 43
0.0
 44
0.0
 45
284.1608763641296
 50
0.0
 51
0.0
 72
   100
 90
    32768
  1

281
     0
 71
     1
 74
     0
110
0.0
120
0.0
130
0.0
111
1.0
121
0.0
131
0.0
112
0.0
122
1.0
132
0.0
 79
     0
146
0.0
  0
VIEWPORT
  5
2E
330
15
100
AcDbEntity
 67
     1
  8
M_VIEW
100
AcDbViewport
 10
200.0
 20
144.0198471030576
 30
0.0
 40
400.0
 41
281.9817386614514
 68
     1
 69
     2
 12
261.7376733636632
 22
724.9275011906726
 13
0.0
 23
0.0
 14
10.0
 24
10.0
 15
10.0
 25
10.0
 16
0.0
 26
0.0
 36
1.0
 17
0.0
 27
0.0
 37
0.0
 42
50.0
 43
0.0
 44
0.0
 45
1127.926950837887
 50
0.0
 51
0.0
 72
   100
 90
    32768
  1

281
     0
 71
     1
 74
     0
110
0.0
120
0.0
130
0.0
111
1.0
121
0.0
131
0.0
112
0.0
122
1.0
132
0.0
 79
     0
146
0.0
  0
INSERT
  5
115F
330
15
100
AcDbEntity
 67
     1
  8
FRAME025
100
AcDbBlockReference
  2
機械A4横_LBP
 10
82.74908858651452
 20
152.030959079227
 30
0.0
  0
TEXT
  5
AA6A
330
15
100
AcDbEntity
 67
     1
  8
文字
  6
ByBlock
 62
     0
100
AcDbText
 10
32.81885892396519
 20
73.01882819621747
 30
0.0
 40
3.2
  1

 50
90.0
 41
0.625
  7
MSｺ_ｼｯｸ
100
AcDbText
  0
TEXT
  5
AA6C
330
15
100
AcDbEntity
 67
     1
  8
文字
  6
ByBlock
 62
     0
100
AcDbText
 10
37.25020936743055
 20
73.01882819621747
 30
0.0
 40
3.2
  1

 50
90.0
 41
0.625
  7
MSｺ_ｼｯｸ
100
AcDbText
  0
TEXT
  5
FCA5
330
15
100
AcDbEntity
 67
     1
  8
FRAME020
  6
Continuous
100
AcDbText
 10
126.6213117262079
 20
29.63926951973459
 30
0.0
 40
2.5
  1

 41
0.625
  7
MSｺ_ｼｯｸ
100
AcDbText
  0
TEXT
  5
12229
330
15
100
AcDbEntity
 67
     1
  8
文字
100
AcDbText
 10
311.834755003403
 20
10.06502980153766
 30
0.0
 40
7.0
  1
ＳＥ－４２１０１Ａ
 41
0.95
  7
MSｺ_ｼｯｸ
100
AcDbText
  0
ENDSEC
  0
SECTION
  2
OBJECTS
  0
DICTIONARY
  5
C
330
0
100
AcDbDictionary
281
     1
  3
ACAD_GROUP
350
D
  3
ACAD_LAYOUT
350
DB2
  3
ACAD_MLINESTYLE
350
1B
  3
ACAD_PLOTSETTINGS
350
DB3
  3
ACAD_PLOTSTYLENAME
350
FB5B
  3
ACADDIM
350
27176
  3
ACDBVARIABLEDICTIONARY
350
106A6
  3
DWGPROPS
350
15EC9
1001
ACAD
1000
TREAT_AS_HARD
1070
     0
  0
DICTIONARY
  5
27FCD
330
2
100
AcDbDictionary
280
     1
281
     1
  3
ACAD_LAYERFILTERS
360
27FCE
  3
ACAD_LAYERSTATES
360
27FE6
  0
DICTIONARY
  5
EFC6
330
18
100
AcDbDictionary
280
     1
281
     1
  3
ACAD_LAYOUTSELFREF
360
28926
  0
DICTIONARY
  5
EFC4
330
15
100
AcDbDictionary
280
     1
281
     1
  3
ACAD_LAYOUTSELFREF
360
28925
  0
DICTIONARY
  5
D
102
{ACAD_REACTORS
330
C
102
}
330
C
100
AcDbDictionary
281
     1
  3
*A1
350
AC8A
  3
*A10
350
25A31
  3
*A11
350
26113
  3
*A12
350
AC9A
  3
*A13
350
2644C
  3
*A14
350
24108
  3
*A15
350
26019
  3
*A16
350
21518
  3
*A17
350
26073
  3
*A18
350
26482
  3
*A19
350
ACBD
  3
*A2
350
106C6
  3
*A20
350
26495
  3
*A21
350
24AC1
  3
*A22
350
FC9B
  3
*A23
350
FC95
  3
*A24
350
23FA3
  3
*A25
350
264C5
  3
*A26
350
ACA1
  3
*A27
350
25FF2
  3
*A28
350
FC9A
  3
*A29
350
23FC0
  3
*A3
350
25FEA
  3
*A30
350
24024
  3
*A31
350
25FF9
  3
*A32
350
FC91
  3
*A33
350
24AFC
  3
*A34
350
24017
  3
*A35
350
26112
  3
*A36
350
266A1
  3
*A37
350
26470
  3
*A38
350
ACAB
  3
*A39
350
26055
  3
*A4
350
26092
  3
*A40
350
FB6B
  3
*A41
350
23FDE
  3
*A42
350
264B5
  3
*A43
350
106C7
  3
*A44
350
26A7D
  3
*A45
350
FB6C
  3
*A46
350
ACB4
  3
*A47
350
24D6A
  3
*A48
350
23FB3
  3
*A49
350
25FF6
  3
*A5
350
24CD8
  3
*A50
350
26661
  3
*A51
350
2645E
  3
*A52
350
23F84
  3
*A53
350
FCB8
  3
*A54
350
26A0E
  3
*A55
350
28796
  3
*A56
350
24C02
  3
*A57
350
28797
  3
*A58
350
27AD9
  3
*A59
350
28798
  3
*A6
350
25FEE
  3
*A60
350
264A5
  3
*A61
350
27AF4
  3
*A62
350
26037
  3
*A63
350
27AE2
  3
*A64
350
27AFF
  3
*A65
350
27AEB
  3
*A66
350
288E1
  3
*A67
350
24AC0
  3
*A68
350
288E2
  3
*A69
350
27AFD
  3
*A7
350
106A5
  3
*A70
350
27AFE
  3
*A71
350
27B00
  3
*A72
350
27B01
  3
*A73
350
ACA2
  3
*A74
350
FBFF
  3
*A8
350
26680
  3
*A9
350
106B3
1001
ACAD
1000
TREAT_AS_HARD
1070
     0
  0
DICTIONARY
  5
DB2
102
{ACAD_REACTORS
330
C
102
}
330
C
100
AcDbDictionary
281
     1
  3
Model
350
2892F
  3
ﾚｲｱｳﾄ1
350
28930
1001
ACAD
1000
TREAT_AS_HARD
1070
     0
  0
DICTIONARY
  5
1B
102
{ACAD_REACTORS
330
C
102
}
330
C
100
AcDbDictionary
281
     1
  3
STANDARD
350
1C
1001
ACAD
1000
TREAT_AS_HARD
1070
     0
  0
DICTIONARY
  5
DB3
102
{ACAD_REACTORS
330
C
102
}
330
C
100
AcDbDictionary
281
     1
1001
ACAD
1000
TREAT_AS_HARD
1070
     0
  0
ACDBDICTIONARYWDFLT
  5
FB5B
102
{ACAD_REACTORS
330
C
102
}
330
C
100
AcDbDictionary
281
     1
  3
Normal
350
FB5C
100
AcDbDictionaryWithDefault
340
FB5C
  0
XRECORD
  5
27176
102
{ACAD_REACTORS
330
C
102
}
330
C
100
AcDbXrecord
280
     1
 90
   990106
  3

 60
     4
 61
     0
 62
     1
 63
     3
 64
     0
 65
     0
 66
     0
 67
     3
 68
     1
 69
     0
 70
     0
 71
     0
 72
     0
 40
0.0
170
     0
  0
DICTIONARY
  5
106A6
102
{ACAD_REACTORS
330
C
102
}
330
C
100
AcDbDictionary
281
     1
  3
SORTENTS
350
106A7
  0
XRECORD
  5
15EC9
102
{ACAD_REACTORS
330
C
102
}
330
C
100
AcDbXrecord
280
     1
  1
DWGPROPS COOKIE
  2

  3

  4

  6

  7

  8

  9

300
=
301
=
302
=
303
=
304
=
305
=
306
=
307
=
308
=
309
=
 40
12.65185717592592
 41
2451224.660162384
 42
2452395.660827315
  1

 90
        0
  0
DICTIONARY
  5
27FCE
102
{ACAD_REACTORS
330
27FCD
102
}
330
27FCD
100
AcDbDictionary
280
     1
281
     1
  3
0
360
27FCF
  3
11
360
27FD0
  3
150_
360
27FD1
  3
160_
360
27FD2
  3
170_
360
27FD3
  3
171_
360
27FD4
  3
350_
360
27FD5
  3
4
360
27FD6
  3
5
360
27FD7
  3
7
360
27FD8
  3
KISEKI
360
27FD9
  0
DICTIONARY
  5
27FE6
102
{ACAD_REACTORS
330
27FCD
102
}
330
27FCD
100
AcDbDictionary
281
     1
  0
XRECORD
  5
28926
102
{ACAD_REACTORS
330
EFC6
102
}
330
EFC6
100
AcDbXrecord
280
     1
340
18
  0
XRECORD
  5
28925
102
{ACAD_REACTORS
330
EFC4
102
}
330
EFC4
100
AcDbXrecord
280
     1
340
15
  0
GROUP
  5
AC8A
102
{ACAD_REACTORS
330
D
102
}
330
D
100
AcDbGroup
300

 70
     1
 71
     1
  0
GROUP
  5
25A31
102
{ACAD_REACTORS
330
D
102
}
330
D
100
AcDbGroup
300

 70
     1
 71
     1
  0
GROUP
  5
26113
102
{ACAD_REACTORS
330
D
102
}
330
D
100
AcDbGroup
300

 70
     1
 71
     1
  0
GROUP
  5
AC9A
102
{ACAD_REACTORS
330
D
102
}
330
D
100
AcDbGroup
300

 70
     1
 71
     1
  0
GROUP
  5
2644C
102
{ACAD_REACTORS
330
D
102
}
330
D
100
AcDbGroup
300

 70
     1
 71
     1
  0
GROUP
  5
24108
102
{ACAD_REACTORS
330
D
102
}
330
D
100
AcDbGroup
300

 70
     1
 71
     1
340
24105
340
24102
340
24101
340
24100
340
240FF
340
240FE
340
240FD
340
24103
340
24104
340
24106
340
24107
340
240FC
  0
GROUP
  5
26019
102
{ACAD_REACTORS
330
D
102
}
330
D
100
AcDbGroup
300

 70
     1
 71
     1
  0
GROUP
  5
21518
102
{ACAD_REACTORS
330
D
102
}
330
D
100
AcDbGroup
300

 70
     1
 71
     1
  0
GROUP
  5
26073
102
{ACAD_REACTORS
330
D
102
}
330
D
100
AcDbGroup
300

 70
     1
 71
     1
  0
GROUP
  5
26482
102
{ACAD_REACTORS
330
D
102
}
330
D
100
AcDbGroup
300

 70
     1
 71
     1
  0
GROUP
  5
ACBD
102
{ACAD_REACTORS
330
D
102
}
330
D
100
AcDbGroup
300

 70
     1
 71
     1
  0
GROUP
  5
106C6
102
{ACAD_REACTORS
330
D
102
}
330
D
100
AcDbGroup
300

 70
     1
 71
     1
  0
GROUP
  5
26495
102
{ACAD_REACTORS
330
D
102
}
330
D
100
AcDbGroup
300

 70
     1
 71
     1
  0
GROUP
  5
24AC1
102
{ACAD_REACTORS
330
D
102
}
330
D
100
AcDbGroup
300

 70
     1
 71
     1
  0
GROUP
  5
FC9B
102
{ACAD_REACTORS
330
D
102
}
330
D
100
AcDbGroup
300

 70
     1
 71
     1
  0
GROUP
  5
FC95
102
{ACAD_REACTORS
330
D
102
}
330
D
100
AcDbGroup
300

 70
     1
 71
     1
  0
GROUP
  5
23FA3
102
{ACAD_REACTORS
330
D
102
}
330
D
100
AcDbGroup
300

 70
     1
 71
     1
  0
GROUP
  5
264C5
102
{ACAD_REACTORS
330
D
102
}
330
D
100
AcDbGroup
300

 70
     1
 71
     1
  0
GROUP
  5
ACA1
102
{ACAD_REACTORS
330
D
102
}
330
D
100
AcDbGroup
300

 70
     1
 71
     1
  0
GROUP
  5
25FF2
102
{ACAD_REACTORS
330
D
102
}
330
D
100
AcDbGroup
300

 70
     1
 71
     1
  0
GROUP
  5
FC9A
102
{ACAD_REACTORS
330
D
102
}
330
D
100
AcDbGroup
300

 70
     1
 71
     1
  0
GROUP
  5
23FC0
102
{ACAD_REACTORS
330
D
102
}
330
D
100
AcDbGroup
300

 70
     1
 71
     1
  0
GROUP
  5
25FEA
102
{ACAD_REACTORS
330
D
102
}
330
D
100
AcDbGroup
300

 70
     1
 71
     1
  0
GROUP
  5
24024
102
{ACAD_REACTORS
330
D
102
}
330
D
100
AcDbGroup
300

 70
     1
 71
     1
  0
GROUP
  5
25FF9
102
{ACAD_REACTORS
330
D
102
}
330
D
100
AcDbGroup
300

 70
     1
 71
     1
  0
GROUP
  5
FC91
102
{ACAD_REACTORS
330
D
102
}
330
D
100
AcDbGroup
300

 70
     1
 71
     1
  0
GROUP
  5
24AFC
102
{ACAD_REACTORS
330
D
102
}
330
D
100
AcDbGroup
300

 70
     1
 71
     1
  0
GROUP
  5
24017
102
{ACAD_REACTORS
330
D
102
}
330
D
100
AcDbGroup
300

 70
     1
 71
     1
  0
GROUP
  5
26112
102
{ACAD_REACTORS
330
D
102
}
330
D
100
AcDbGroup
300

 70
     1
 71
     1
  0
GROUP
  5
266A1
102
{ACAD_REACTORS
330
D
102
}
330
D
100
AcDbGroup
300

 70
     1
 71
     1
  0
GROUP
  5
26470
102
{ACAD_REACTORS
330
D
102
}
330
D
100
AcDbGroup
300

 70
     1
 71
     1
  0
GROUP
  5
ACAB
102
{ACAD_REACTORS
330
D
102
}
330
D
100
AcDbGroup
300

 70
     1
 71
     1
  0
GROUP
  5
26055
102
{ACAD_REACTORS
330
D
102
}
330
D
100
AcDbGroup
300

 70
     1
 71
     1
  0
GROUP
  5
26092
102
{ACAD_REACTORS
330
D
102
}
330
D
100
AcDbGroup
300

 70
     1
 71
     1
  0
GROUP
  5
FB6B
102
{ACAD_REACTORS
330
D
102
}
330
D
100
AcDbGroup
300

 70
     1
 71
     1
  0
GROUP
  5
23FDE
102
{ACAD_REACTORS
330
D
102
}
330
D
100
AcDbGroup
300

 70
     1
 71
     1
  0
GROUP
  5
264B5
102
{ACAD_REACTORS
330
D
102
}
330
D
100
AcDbGroup
300

 70
     1
 71
     1
  0
GROUP
  5
106C7
102
{ACAD_REACTORS
330
D
102
}
330
D
100
AcDbGroup
300

 70
     1
 71
     1
  0
GROUP
  5
26A7D
102
{ACAD_REACTORS
330
D
102
}
330
D
100
AcDbGroup
300

 70
     1
 71
     1
  0
GROUP
  5
FB6C
102
{ACAD_REACTORS
330
D
102
}
330
D
100
AcDbGroup
300

 70
     1
 71
     1
  0
GROUP
  5
ACB4
102
{ACAD_REACTORS
330
D
102
}
330
D
100
AcDbGroup
300

 70
     1
 71
     1
  0
GROUP
  5
24D6A
102
{ACAD_REACTORS
330
D
102
}
330
D
100
AcDbGroup
300

 70
     1
 71
     1
  0
GROUP
  5
23FB3
102
{ACAD_REACTORS
330
D
102
}
330
D
100
AcDbGroup
300

 70
     1
 71
     1
  0
GROUP
  5
25FF6
102
{ACAD_REACTORS
330
D
102
}
330
D
100
AcDbGroup
300

 70
     1
 71
     1
  0
GROUP
  5
24CD8
102
{ACAD_REACTORS
330
D
102
}
330
D
100
AcDbGroup
300

 70
     1
 71
     1
  0
GROUP
  5
26661
102
{ACAD_REACTORS
330
D
102
}
330
D
100
AcDbGroup
300

 70
     1
 71
     1
340
2665C
340
26647
340
26646
340
26645
340
26644
340
2664A
340
26649
340
26648
340
26650
340
2664F
340
2664E
340
2664D
340
2664C
340
2664B
340
2665D
340
2665B
340
26656
340
26655
340
26654
340
26653
340
26652
340
26651
340
2665E
340
2665A
340
26659
340
26658
340
26657
340
26643
340
26660
340
2665F
  0
GROUP
  5
2645E
102
{ACAD_REACTORS
330
D
102
}
330
D
100
AcDbGroup
300

 70
     1
 71
     1
  0
GROUP
  5
23F84
102
{ACAD_REACTORS
330
D
102
}
330
D
100
AcDbGroup
300

 70
     1
 71
     1
  0
GROUP
  5
FCB8
102
{ACAD_REACTORS
330
D
102
}
330
D
100
AcDbGroup
300

 70
     1
 71
     1
  0
GROUP
  5
26A0E
102
{ACAD_REACTORS
330
D
102
}
330
D
100
AcDbGroup
300

 70
     1
 71
     1
  0
GROUP
  5
28796
102
{ACAD_REACTORS
330
D
102
}
330
D
100
AcDbGroup
300

 70
     1
 71
     1
  0
GROUP
  5
24C02
102
{ACAD_REACTORS
330
D
102
}
330
D
100
AcDbGroup
300

 70
     1
 71
     1
  0
GROUP
  5
28797
102
{ACAD_REACTORS
330
D
102
}
330
D
100
AcDbGroup
300

 70
     1
 71
     1
  0
GROUP
  5
27AD9
102
{ACAD_REACTORS
330
D
102
}
330
D
100
AcDbGroup
300

 70
     1
 71
     1
340
276B1
340
276B8
340
276B7
340
276B6
340
276B5
340
276B4
340
276B3
340
276B2
  0
GROUP
  5
28798
102
{ACAD_REACTORS
330
D
102
}
330
D
100
AcDbGroup
300

 70
     1
 71
     1
  0
GROUP
  5
25FEE
102
{ACAD_REACTORS
330
D
102
}
330
D
100
AcDbGroup
300

 70
     1
 71
     1
  0
GROUP
  5
264A5
102
{ACAD_REACTORS
330
D
102
}
330
D
100
AcDbGroup
300

 70
     1
 71
     1
  0
GROUP
  5
27AF4
102
{ACAD_REACTORS
330
D
102
}
330
D
100
AcDbGroup
300

 70
     1
 71
     1
340
27AEC
340
27AED
340
27AEE
340
27AEF
340
27AF0
340
27AF1
340
27AF2
340
27AF3
  0
GROUP
  5
26037
102
{ACAD_REACTORS
330
D
102
}
330
D
100
AcDbGroup
300

 70
     1
 71
     1
  0
GROUP
  5
27AE2
102
{ACAD_REACTORS
330
D
102
}
330
D
100
AcDbGroup
300

 70
     1
 71
     1
340
27ADA
340
27ADB
340
27ADC
340
27ADD
340
27ADE
340
27ADF
340
27AE0
340
27AE1
  0
GROUP
  5
27AFF
102
{ACAD_REACTORS
330
D
102
}
330
D
100
AcDbGroup
300

 70
     1
 71
     1
  0
GROUP
  5
27AEB
102
{ACAD_REACTORS
330
D
102
}
330
D
100
AcDbGroup
300

 70
     1
 71
     1
340
27AE3
340
27AE4
340
27AE5
340
27AE6
340
27AE7
340
27AE8
340
27AE9
340
27AEA
  0
GROUP
  5
288E1
102
{ACAD_REACTORS
330
D
102
}
330
D
100
AcDbGroup
300

 70
     1
 71
     1
340
27088
340
27085
340
2708F
340
27099
340
27098
340
27097
340
2708A
340
27089
340
27092
340
27091
340
27090
340
2708E
340
2708D
340
2708C
340
2708B
340
270A0
340
2709F
340
2709E
340
2709D
340
2709C
340
2709B
340
2709A
340
27096
340
27095
340
27094
340
270A4
340
270A3
340
270A2
340
270A1
  0
GROUP
  5
24AC0
102
{ACAD_REACTORS
330
D
102
}
330
D
100
AcDbGroup
300

 70
     1
 71
     1
  0
GROUP
  5
288E2
102
{ACAD_REACTORS
330
D
102
}
330
D
100
AcDbGroup
300

 70
     1
 71
     1
340
26FD4
340
26FDC
340
26FE2
340
26FE1
340
26FE0
340
26FDF
340
26FDE
340
26FDB
340
26FDA
340
26FD9
340
26FD8
340
26FD7
340
26FD6
340
26FD5
340
26FD0
340
26FEE
340
26FED
340
26FEC
340
26FEB
340
26FEA
340
26FE9
340
26FE8
340
26FE7
340
26FE6
340
26FE5
340
26FE4
340
26FE3
340
26FD1
340
26FEF
  0
GROUP
  5
27AFD
102
{ACAD_REACTORS
330
D
102
}
330
D
100
AcDbGroup
300

 70
     1
 71
     1
340
27AF5
340
27AF6
340
27AF7
340
27AF8
340
27AF9
340
27AFA
340
27AFB
340
27AFC
  0
GROUP
  5
106A5
102
{ACAD_REACTORS
330
D
102
}
330
D
100
AcDbGroup
300

 70
     1
 71
     1
  0
GROUP
  5
27AFE
102
{ACAD_REACTORS
330
D
102
}
330
D
100
AcDbGroup
300

 70
     1
 71
     1
  0
GROUP
  5
27B00
102
{ACAD_REACTORS
330
D
102
}
330
D
100
AcDbGroup
300

 70
     1
 71
     1
  0
GROUP
  5
27B01
102
{ACAD_REACTORS
330
D
102
}
330
D
100
AcDbGroup
300

 70
     1
 71
     1
  0
GROUP
  5
ACA2
102
{ACAD_REACTORS
330
D
102
}
330
D
100
AcDbGroup
300

 70
     1
 71
     1
  0
GROUP
  5
FBFF
102
{ACAD_REACTORS
330
D
102
}
330
D
100
AcDbGroup
300

 70
     1
 71
     1
  0
GROUP
  5
26680
102
{ACAD_REACTORS
330
D
102
}
330
D
100
AcDbGroup
300

 70
     1
 71
     1
340
26665
340
26662
340
26663
340
26664
340
26666
340
26667
340
26668
340
26669
340
2666A
340
2666B
340
2666C
340
2666D
340
2666E
340
2666F
340
26670
340
26671
340
26672
340
26673
340
26674
340
26675
340
26676
340
26677
340
26678
340
26679
340
2667A
340
2667B
340
2667C
340
2667D
340
2667E
340
2667F
  0
GROUP
  5
106B3
102
{ACAD_REACTORS
330
D
102
}
330
D
100
AcDbGroup
300

 70
     1
 71
     1
  0
LAYOUT
  5
2892F
102
{ACAD_REACTORS
330
DB2
102
}
330
DB2
100
AcDbPlotSettings
  1

  2
iR C2550
  4

  6

 40
0.0
 41
0.0
 42
0.0
 43
0.0
 44
0.0
 45
0.0
 46
0.0
 47
0.0
 48
0.0
 49
0.0
140
0.0
141
0.0
142
1.0
143
1.0
 70
  1712
 72
     0
 73
     0
 74
     0
  7

 75
     0
147
1.0
148
0.0
149
0.0
100
AcDbLayout
  1
Model
 70
     1
 71
     0
 10
0.0
 20
0.0
 11
12.0
 21
9.0
 12
0.0
 22
0.0
 32
0.0
 14
0.0
 24
0.0
 34
0.0
 15
0.0
 25
0.0
 35
0.0
146
0.0
 13
0.0
 23
0.0
 33
0.0
 16
1.0
 26
0.0
 36
0.0
 17
0.0
 27
1.0
 37
0.0
 76
     0
330
18
  0
LAYOUT
  5
28930
102
{ACAD_REACTORS
330
DB2
102
}
330
DB2
100
AcDbPlotSettings
  1

  2
iR C2550
  4
A4
  6

 40
5.873749732971191
 41
5.873747825622558
 42
5.873748779296875
 43
5.873748779296875
 44
209.9733276367187
 45
296.9259948730469
 46
0.0
 47
0.0
 48
0.0
 49
0.0
140
0.0
141
0.0
142
1.0
143
36.13662854856953
 70
   688
 72
     0
 73
     1
 74
     1
  7

 75
     0
147
0.0276727531085516
148
0.8103868175887328
149
-76.41825000818139
100
AcDbLayout
  1
ﾚｲｱｳﾄ1
 70
     0
 71
     1
 10
-8.388498607978489
 20
-5.348002451947166
 11
414.0486818306733
 21
293.3814521116431
 12
0.0
 22
0.0
 32
0.0
 14
-0.0319049928184541
 24
3.008592520007141
 34
-0.0015258207003583
 15
400.0304639173505
 25
285.0248584964831
 35
0.0000000349246037
146
0.0
 13
0.0
 23
0.0
 33
0.0
 16
1.0
 26
0.0
 36
0.0
 17
0.0
 27
1.0
 37
0.0
 76
     0
330
15
331
2E
  0
MLINESTYLE
  5
1C
102
{ACAD_REACTORS
330
1B
102
}
330
1B
100
AcDbMlineStyle
  2
STANDARD
 70
     0
  3

 62
   256
 51
90.0
 52
90.0
 71
     2
 49
0.5
 62
   256
  6
BYLAYER
 49
-0.5
 62
   256
  6
BYLAYER
  0
ACDBPLACEHOLDER
  5
FB5C
102
{ACAD_REACTORS
330
FB5B
102
}
330
FB5B
  0
DICTIONARYVAR
  5
106A7
102
{ACAD_REACTORS
330
106A6
102
}
330
106A6
100
DictionaryVariables
280
     0
  1
96
  0
XRECORD
  5
27FCF
102
{ACAD_REACTORS
330
27FCE
102
}
330
27FCE
100
AcDbXrecord
280
     1
  1
0
  1
*0
  1
*
  1
*
 70
     0
  1
*
  1
*
  0
XRECORD
  5
27FD0
102
{ACAD_REACTORS
330
27FCE
102
}
330
27FCE
100
AcDbXrecord
280
     1
  1
11
  1
*11
  1
*
  1
*
 70
     0
  1
*
  1
*
  0
XRECORD
  5
27FD1
102
{ACAD_REACTORS
330
27FCE
102
}
330
27FCE
100
AcDbXrecord
280
     1
  1
150_
  1
150_*
  1
*
  1
*
 70
     0
  1
*
  1
*
  0
XRECORD
  5
27FD2
102
{ACAD_REACTORS
330
27FCE
102
}
330
27FCE
100
AcDbXrecord
280
     1
  1
160_
  1
160_*
  1
*
  1
*
 70
     0
  1
*
  1
*
  0
XRECORD
  5
27FD3
102
{ACAD_REACTORS
330
27FCE
102
}
330
27FCE
100
AcDbXrecord
280
     1
  1
170_
  1
170_*
  1
*
  1
*
 70
     0
  1
*
  1
*
  0
XRECORD
  5
27FD4
102
{ACAD_REACTORS
330
27FCE
102
}
330
27FCE
100
AcDbXrecord
280
     1
  1
171_
  1
171_*
  1
*
  1
*
 70
     0
  1
*
  1
*
  0
XRECORD
  5
27FD5
102
{ACAD_REACTORS
330
27FCE
102
}
330
27FCE
100
AcDbXrecord
280
     1
  1
350_
  1
350_*
  1
*
  1
*
 70
     0
  1
*
  1
*
  0
XRECORD
  5
27FD6
102
{ACAD_REACTORS
330
27FCE
102
}
330
27FCE
100
AcDbXrecord
280
     1
  1
4
  1
*4
  1
*
  1
*
 70
     0
  1
*
  1
*
  0
XRECORD
  5
27FD7
102
{ACAD_REACTORS
330
27FCE
102
}
330
27FCE
100
AcDbXrecord
280
     1
  1
5
  1
*5
  1
*
  1
*
 70
     0
  1
*
  1
*
  0
XRECORD
  5
27FD8
102
{ACAD_REACTORS
330
27FCE
102
}
330
27FCE
100
AcDbXrecord
280
     1
  1
7
  1
*7
  1
*
  1
*
 70
     0
  1
*
  1
*
  0
XRECORD
  5
27FD9
102
{ACAD_REACTORS
330
27FCE
102
}
330
27FCE
100
AcDbXrecord
280
     1
  1
kiseki
  1
kiseki*
  1
*
  1
*
 70
     0
  1
*
  1
*
  0
ENDSEC
  0
EOF
